ISO-10303-21;
HEADER;
/* Generated by software containing ST-Developer
 * from STEP Tools, Inc. (www.steptools.com) 
 */

FILE_DESCRIPTION(
/* description */ (''),
/* implementation_level */ '2;1');

FILE_NAME(
/* name */ 'Dati-2300_G$16$00.stp',
/* time_stamp */ '2025-08-19T15:23:52+02:00',
/* author */ ('olafg'),
/* organization */ (''),
/* preprocessor_version */ 'ST-DEVELOPER v20',
/* originating_system */ 'Autodesk Inventor 2024',
/* authorisation */ '');

FILE_SCHEMA (('AUTOMOTIVE_DESIGN { 1 0 10303 214 3 1 1 }'));
ENDSEC;

DATA;
#10=MECHANICAL_DESIGN_GEOMETRIC_PRESENTATION_REPRESENTATION('',(#13),#642);
#11=SHAPE_REPRESENTATION_RELATIONSHIP('SRR','None',#649,#12);
#12=ADVANCED_BREP_SHAPE_REPRESENTATION('',(#14),#641);
#13=STYLED_ITEM('',(#658),#14);
#14=MANIFOLD_SOLID_BREP('Volumenk\X\F6rper1',#361);
#15=FACE_BOUND('',#85,.T.);
#16=FACE_BOUND('',#89,.T.);
#17=TOROIDAL_SURFACE('',#414,2.05,0.1);
#18=CYLINDRICAL_SURFACE('',#411,2.);
#19=CYLINDRICAL_SURFACE('',#421,4.1);
#20=CIRCLE('',#387,0.0142304845413264);
#21=CIRCLE('',#388,0.175);
#22=CIRCLE('',#391,0.0142304845413264);
#23=CIRCLE('',#392,0.175);
#24=CIRCLE('',#396,0.0142304845413264);
#25=CIRCLE('',#397,0.175);
#26=CIRCLE('',#400,0.0142304845413264);
#27=CIRCLE('',#401,0.175);
#28=CIRCLE('',#404,0.0142304845413264);
#29=CIRCLE('',#405,0.175);
#30=CIRCLE('',#408,1.7);
#31=CIRCLE('',#410,2.);
#32=CIRCLE('',#412,2.);
#33=CIRCLE('',#413,2.);
#34=CIRCLE('',#415,0.1);
#35=CIRCLE('',#416,2.05);
#36=CIRCLE('',#418,3.92679491924311);
#37=CIRCLE('',#420,4.1);
#38=CIRCLE('',#422,4.1);
#39=CONICAL_SURFACE('',#386,0.175,0.261799387799149);
#40=CONICAL_SURFACE('',#390,0.175,0.261799387799149);
#41=CONICAL_SURFACE('',#395,0.175,0.261799387799149);
#42=CONICAL_SURFACE('',#399,0.175,0.261799387799149);
#43=CONICAL_SURFACE('',#403,0.175,0.261799387799149);
#44=CONICAL_SURFACE('',#409,1.85,0.785398163397448);
#45=CONICAL_SURFACE('',#419,4.01339745962156,0.523598775598298);
#46=FACE_OUTER_BOUND('',#67,.T.);
#47=FACE_OUTER_BOUND('',#68,.T.);
#48=FACE_OUTER_BOUND('',#69,.T.);
#49=FACE_OUTER_BOUND('',#70,.T.);
#50=FACE_OUTER_BOUND('',#71,.T.);
#51=FACE_OUTER_BOUND('',#72,.T.);
#52=FACE_OUTER_BOUND('',#73,.T.);
#53=FACE_OUTER_BOUND('',#74,.T.);
#54=FACE_OUTER_BOUND('',#75,.T.);
#55=FACE_OUTER_BOUND('',#76,.T.);
#56=FACE_OUTER_BOUND('',#77,.T.);
#57=FACE_OUTER_BOUND('',#78,.T.);
#58=FACE_OUTER_BOUND('',#79,.T.);
#59=FACE_OUTER_BOUND('',#80,.T.);
#60=FACE_OUTER_BOUND('',#81,.T.);
#61=FACE_OUTER_BOUND('',#82,.T.);
#62=FACE_OUTER_BOUND('',#83,.T.);
#63=FACE_OUTER_BOUND('',#84,.T.);
#64=FACE_OUTER_BOUND('',#86,.T.);
#65=FACE_OUTER_BOUND('',#87,.T.);
#66=FACE_OUTER_BOUND('',#88,.T.);
#67=EDGE_LOOP('',(#231,#232,#233,#234));
#68=EDGE_LOOP('',(#235,#236,#237,#238));
#69=EDGE_LOOP('',(#239,#240,#241,#242));
#70=EDGE_LOOP('',(#243,#244,#245,#246));
#71=EDGE_LOOP('',(#247,#248,#249,#250));
#72=EDGE_LOOP('',(#251,#252,#253,#254));
#73=EDGE_LOOP('',(#255,#256,#257,#258));
#74=EDGE_LOOP('',(#259,#260,#261,#262));
#75=EDGE_LOOP('',(#263,#264,#265,#266));
#76=EDGE_LOOP('',(#267,#268,#269,#270));
#77=EDGE_LOOP('',(#271,#272,#273,#274));
#78=EDGE_LOOP('',(#275,#276,#277,#278));
#79=EDGE_LOOP('',(#279,#280,#281,#282,#283,#284,#285,#286,#287,#288,#289,
#290));
#80=EDGE_LOOP('',(#291));
#81=EDGE_LOOP('',(#292,#293,#294,#295));
#82=EDGE_LOOP('',(#296,#297,#298,#299,#300));
#83=EDGE_LOOP('',(#301,#302,#303,#304,#305));
#84=EDGE_LOOP('',(#306));
#85=EDGE_LOOP('',(#307));
#86=EDGE_LOOP('',(#308,#309,#310,#311));
#87=EDGE_LOOP('',(#312,#313,#314,#315));
#88=EDGE_LOOP('',(#316));
#89=EDGE_LOOP('',(#317,#318,#319,#320,#321,#322,#323,#324,#325,#326,#327,
#328));
#90=LINE('',#540,#120);
#91=LINE('',#542,#121);
#92=LINE('',#544,#122);
#93=LINE('',#545,#123);
#94=LINE('',#548,#124);
#95=LINE('',#550,#125);
#96=LINE('',#551,#126);
#97=LINE('',#557,#127);
#98=LINE('',#560,#128);
#99=LINE('',#562,#129);
#100=LINE('',#563,#130);
#101=LINE('',#569,#131);
#102=LINE('',#572,#132);
#103=LINE('',#574,#133);
#104=LINE('',#575,#134);
#105=LINE('',#578,#135);
#106=LINE('',#580,#136);
#107=LINE('',#581,#137);
#108=LINE('',#587,#138);
#109=LINE('',#590,#139);
#110=LINE('',#592,#140);
#111=LINE('',#593,#141);
#112=LINE('',#599,#142);
#113=LINE('',#602,#143);
#114=LINE('',#604,#144);
#115=LINE('',#605,#145);
#116=LINE('',#616,#146);
#117=LINE('',#622,#147);
#118=LINE('',#632,#148);
#119=LINE('',#637,#149);
#120=VECTOR('',#428,10.);
#121=VECTOR('',#429,10.);
#122=VECTOR('',#430,10.);
#123=VECTOR('',#431,10.);
#124=VECTOR('',#434,10.);
#125=VECTOR('',#435,10.);
#126=VECTOR('',#436,10.);
#127=VECTOR('',#443,10.);
#128=VECTOR('',#446,10.);
#129=VECTOR('',#447,10.);
#130=VECTOR('',#448,10.);
#131=VECTOR('',#455,10.);
#132=VECTOR('',#458,10.);
#133=VECTOR('',#459,10.);
#134=VECTOR('',#460,10.);
#135=VECTOR('',#463,10.);
#136=VECTOR('',#464,10.);
#137=VECTOR('',#465,10.);
#138=VECTOR('',#472,10.);
#139=VECTOR('',#475,10.);
#140=VECTOR('',#476,10.);
#141=VECTOR('',#477,10.);
#142=VECTOR('',#484,10.);
#143=VECTOR('',#487,10.);
#144=VECTOR('',#488,10.);
#145=VECTOR('',#489,10.);
#146=VECTOR('',#506,1.85);
#147=VECTOR('',#513,2.);
#148=VECTOR('',#526,4.01339745962156);
#149=VECTOR('',#533,4.1);
#150=VERTEX_POINT('',#538);
#151=VERTEX_POINT('',#539);
#152=VERTEX_POINT('',#541);
#153=VERTEX_POINT('',#543);
#154=VERTEX_POINT('',#547);
#155=VERTEX_POINT('',#549);
#156=VERTEX_POINT('',#553);
#157=VERTEX_POINT('',#555);
#158=VERTEX_POINT('',#559);
#159=VERTEX_POINT('',#561);
#160=VERTEX_POINT('',#565);
#161=VERTEX_POINT('',#567);
#162=VERTEX_POINT('',#571);
#163=VERTEX_POINT('',#573);
#164=VERTEX_POINT('',#577);
#165=VERTEX_POINT('',#579);
#166=VERTEX_POINT('',#583);
#167=VERTEX_POINT('',#585);
#168=VERTEX_POINT('',#589);
#169=VERTEX_POINT('',#591);
#170=VERTEX_POINT('',#595);
#171=VERTEX_POINT('',#597);
#172=VERTEX_POINT('',#601);
#173=VERTEX_POINT('',#603);
#174=VERTEX_POINT('',#611);
#175=VERTEX_POINT('',#614);
#176=VERTEX_POINT('',#618);
#177=VERTEX_POINT('',#619);
#178=VERTEX_POINT('',#624);
#179=VERTEX_POINT('',#628);
#180=VERTEX_POINT('',#631);
#181=VERTEX_POINT('',#635);
#182=EDGE_CURVE('',#150,#151,#90,.T.);
#183=EDGE_CURVE('',#152,#150,#91,.T.);
#184=EDGE_CURVE('',#153,#152,#92,.T.);
#185=EDGE_CURVE('',#153,#151,#93,.T.);
#186=EDGE_CURVE('',#151,#154,#94,.T.);
#187=EDGE_CURVE('',#155,#153,#95,.T.);
#188=EDGE_CURVE('',#155,#154,#96,.T.);
#189=EDGE_CURVE('',#154,#156,#20,.T.);
#190=EDGE_CURVE('',#157,#155,#21,.T.);
#191=EDGE_CURVE('',#157,#156,#97,.T.);
#192=EDGE_CURVE('',#156,#158,#98,.T.);
#193=EDGE_CURVE('',#159,#157,#99,.T.);
#194=EDGE_CURVE('',#159,#158,#100,.T.);
#195=EDGE_CURVE('',#158,#160,#22,.T.);
#196=EDGE_CURVE('',#161,#159,#23,.T.);
#197=EDGE_CURVE('',#161,#160,#101,.T.);
#198=EDGE_CURVE('',#160,#162,#102,.T.);
#199=EDGE_CURVE('',#163,#161,#103,.T.);
#200=EDGE_CURVE('',#163,#162,#104,.T.);
#201=EDGE_CURVE('',#162,#164,#105,.T.);
#202=EDGE_CURVE('',#165,#163,#106,.T.);
#203=EDGE_CURVE('',#165,#164,#107,.T.);
#204=EDGE_CURVE('',#164,#166,#24,.T.);
#205=EDGE_CURVE('',#167,#165,#25,.T.);
#206=EDGE_CURVE('',#167,#166,#108,.T.);
#207=EDGE_CURVE('',#166,#168,#109,.T.);
#208=EDGE_CURVE('',#169,#167,#110,.T.);
#209=EDGE_CURVE('',#169,#168,#111,.T.);
#210=EDGE_CURVE('',#168,#170,#26,.T.);
#211=EDGE_CURVE('',#171,#169,#27,.T.);
#212=EDGE_CURVE('',#171,#170,#112,.T.);
#213=EDGE_CURVE('',#170,#172,#113,.T.);
#214=EDGE_CURVE('',#173,#171,#114,.T.);
#215=EDGE_CURVE('',#173,#172,#115,.T.);
#216=EDGE_CURVE('',#172,#150,#28,.T.);
#217=EDGE_CURVE('',#152,#173,#29,.T.);
#218=EDGE_CURVE('',#174,#174,#30,.T.);
#219=EDGE_CURVE('',#175,#175,#31,.T.);
#220=EDGE_CURVE('',#175,#174,#116,.T.);
#221=EDGE_CURVE('',#176,#177,#32,.T.);
#222=EDGE_CURVE('',#177,#176,#33,.T.);
#223=EDGE_CURVE('',#177,#175,#117,.T.);
#224=EDGE_CURVE('',#176,#178,#34,.T.);
#225=EDGE_CURVE('',#178,#178,#35,.T.);
#226=EDGE_CURVE('',#179,#179,#36,.T.);
#227=EDGE_CURVE('',#179,#180,#118,.T.);
#228=EDGE_CURVE('',#180,#180,#37,.T.);
#229=EDGE_CURVE('',#181,#181,#38,.T.);
#230=EDGE_CURVE('',#181,#180,#119,.T.);
#231=ORIENTED_EDGE('',*,*,#182,.F.);
#232=ORIENTED_EDGE('',*,*,#183,.F.);
#233=ORIENTED_EDGE('',*,*,#184,.F.);
#234=ORIENTED_EDGE('',*,*,#185,.T.);
#235=ORIENTED_EDGE('',*,*,#186,.F.);
#236=ORIENTED_EDGE('',*,*,#185,.F.);
#237=ORIENTED_EDGE('',*,*,#187,.F.);
#238=ORIENTED_EDGE('',*,*,#188,.T.);
#239=ORIENTED_EDGE('',*,*,#189,.F.);
#240=ORIENTED_EDGE('',*,*,#188,.F.);
#241=ORIENTED_EDGE('',*,*,#190,.F.);
#242=ORIENTED_EDGE('',*,*,#191,.T.);
#243=ORIENTED_EDGE('',*,*,#192,.F.);
#244=ORIENTED_EDGE('',*,*,#191,.F.);
#245=ORIENTED_EDGE('',*,*,#193,.F.);
#246=ORIENTED_EDGE('',*,*,#194,.T.);
#247=ORIENTED_EDGE('',*,*,#195,.F.);
#248=ORIENTED_EDGE('',*,*,#194,.F.);
#249=ORIENTED_EDGE('',*,*,#196,.F.);
#250=ORIENTED_EDGE('',*,*,#197,.T.);
#251=ORIENTED_EDGE('',*,*,#198,.F.);
#252=ORIENTED_EDGE('',*,*,#197,.F.);
#253=ORIENTED_EDGE('',*,*,#199,.F.);
#254=ORIENTED_EDGE('',*,*,#200,.T.);
#255=ORIENTED_EDGE('',*,*,#201,.F.);
#256=ORIENTED_EDGE('',*,*,#200,.F.);
#257=ORIENTED_EDGE('',*,*,#202,.F.);
#258=ORIENTED_EDGE('',*,*,#203,.T.);
#259=ORIENTED_EDGE('',*,*,#204,.F.);
#260=ORIENTED_EDGE('',*,*,#203,.F.);
#261=ORIENTED_EDGE('',*,*,#205,.F.);
#262=ORIENTED_EDGE('',*,*,#206,.T.);
#263=ORIENTED_EDGE('',*,*,#207,.F.);
#264=ORIENTED_EDGE('',*,*,#206,.F.);
#265=ORIENTED_EDGE('',*,*,#208,.F.);
#266=ORIENTED_EDGE('',*,*,#209,.T.);
#267=ORIENTED_EDGE('',*,*,#210,.F.);
#268=ORIENTED_EDGE('',*,*,#209,.F.);
#269=ORIENTED_EDGE('',*,*,#211,.F.);
#270=ORIENTED_EDGE('',*,*,#212,.T.);
#271=ORIENTED_EDGE('',*,*,#213,.F.);
#272=ORIENTED_EDGE('',*,*,#212,.F.);
#273=ORIENTED_EDGE('',*,*,#214,.F.);
#274=ORIENTED_EDGE('',*,*,#215,.T.);
#275=ORIENTED_EDGE('',*,*,#216,.F.);
#276=ORIENTED_EDGE('',*,*,#215,.F.);
#277=ORIENTED_EDGE('',*,*,#217,.F.);
#278=ORIENTED_EDGE('',*,*,#183,.T.);
#279=ORIENTED_EDGE('',*,*,#182,.T.);
#280=ORIENTED_EDGE('',*,*,#186,.T.);
#281=ORIENTED_EDGE('',*,*,#189,.T.);
#282=ORIENTED_EDGE('',*,*,#192,.T.);
#283=ORIENTED_EDGE('',*,*,#195,.T.);
#284=ORIENTED_EDGE('',*,*,#198,.T.);
#285=ORIENTED_EDGE('',*,*,#201,.T.);
#286=ORIENTED_EDGE('',*,*,#204,.T.);
#287=ORIENTED_EDGE('',*,*,#207,.T.);
#288=ORIENTED_EDGE('',*,*,#210,.T.);
#289=ORIENTED_EDGE('',*,*,#213,.T.);
#290=ORIENTED_EDGE('',*,*,#216,.T.);
#291=ORIENTED_EDGE('',*,*,#218,.F.);
#292=ORIENTED_EDGE('',*,*,#219,.F.);
#293=ORIENTED_EDGE('',*,*,#220,.T.);
#294=ORIENTED_EDGE('',*,*,#218,.T.);
#295=ORIENTED_EDGE('',*,*,#220,.F.);
#296=ORIENTED_EDGE('',*,*,#221,.F.);
#297=ORIENTED_EDGE('',*,*,#222,.F.);
#298=ORIENTED_EDGE('',*,*,#223,.T.);
#299=ORIENTED_EDGE('',*,*,#219,.T.);
#300=ORIENTED_EDGE('',*,*,#223,.F.);
#301=ORIENTED_EDGE('',*,*,#221,.T.);
#302=ORIENTED_EDGE('',*,*,#222,.T.);
#303=ORIENTED_EDGE('',*,*,#224,.T.);
#304=ORIENTED_EDGE('',*,*,#225,.T.);
#305=ORIENTED_EDGE('',*,*,#224,.F.);
#306=ORIENTED_EDGE('',*,*,#226,.F.);
#307=ORIENTED_EDGE('',*,*,#225,.F.);
#308=ORIENTED_EDGE('',*,*,#226,.T.);
#309=ORIENTED_EDGE('',*,*,#227,.T.);
#310=ORIENTED_EDGE('',*,*,#228,.T.);
#311=ORIENTED_EDGE('',*,*,#227,.F.);
#312=ORIENTED_EDGE('',*,*,#229,.T.);
#313=ORIENTED_EDGE('',*,*,#230,.T.);
#314=ORIENTED_EDGE('',*,*,#228,.F.);
#315=ORIENTED_EDGE('',*,*,#230,.F.);
#316=ORIENTED_EDGE('',*,*,#229,.F.);
#317=ORIENTED_EDGE('',*,*,#184,.T.);
#318=ORIENTED_EDGE('',*,*,#217,.T.);
#319=ORIENTED_EDGE('',*,*,#214,.T.);
#320=ORIENTED_EDGE('',*,*,#211,.T.);
#321=ORIENTED_EDGE('',*,*,#208,.T.);
#322=ORIENTED_EDGE('',*,*,#205,.T.);
#323=ORIENTED_EDGE('',*,*,#202,.T.);
#324=ORIENTED_EDGE('',*,*,#199,.T.);
#325=ORIENTED_EDGE('',*,*,#196,.T.);
#326=ORIENTED_EDGE('',*,*,#193,.T.);
#327=ORIENTED_EDGE('',*,*,#190,.T.);
#328=ORIENTED_EDGE('',*,*,#187,.T.);
#329=PLANE('',#384);
#330=PLANE('',#385);
#331=PLANE('',#389);
#332=PLANE('',#393);
#333=PLANE('',#394);
#334=PLANE('',#398);
#335=PLANE('',#402);
#336=PLANE('',#406);
#337=PLANE('',#407);
#338=PLANE('',#417);
#339=PLANE('',#423);
#340=ADVANCED_FACE('',(#46),#329,.F.);
#341=ADVANCED_FACE('',(#47),#330,.F.);
#342=ADVANCED_FACE('',(#48),#39,.F.);
#343=ADVANCED_FACE('',(#49),#331,.F.);
#344=ADVANCED_FACE('',(#50),#40,.F.);
#345=ADVANCED_FACE('',(#51),#332,.F.);
#346=ADVANCED_FACE('',(#52),#333,.F.);
#347=ADVANCED_FACE('',(#53),#41,.F.);
#348=ADVANCED_FACE('',(#54),#334,.F.);
#349=ADVANCED_FACE('',(#55),#42,.F.);
#350=ADVANCED_FACE('',(#56),#335,.F.);
#351=ADVANCED_FACE('',(#57),#43,.F.);
#352=ADVANCED_FACE('',(#58),#336,.T.);
#353=ADVANCED_FACE('',(#59),#337,.T.);
#354=ADVANCED_FACE('',(#60),#44,.T.);
#355=ADVANCED_FACE('',(#61),#18,.T.);
#356=ADVANCED_FACE('',(#62),#17,.F.);
#357=ADVANCED_FACE('',(#63,#15),#338,.T.);
#358=ADVANCED_FACE('',(#64),#45,.T.);
#359=ADVANCED_FACE('',(#65),#19,.T.);
#360=ADVANCED_FACE('',(#66,#16),#339,.F.);
#361=CLOSED_SHELL('',(#340,#341,#342,#343,#344,#345,#346,#347,#348,#349,
#350,#351,#352,#353,#354,#355,#356,#357,#358,#359,#360));
#362=DERIVED_UNIT_ELEMENT(#365,1.);
#363=DERIVED_UNIT_ELEMENT(#644,-3.);
#364=DIMENSIONAL_EXPONENTS(0.,1.,0.,0.,0.,0.,0.);
#365=(
CONVERSION_BASED_UNIT('gram',#367)
MASS_UNIT()
NAMED_UNIT(#364)
);
#366=(
MASS_UNIT()
NAMED_UNIT(*)
SI_UNIT(.KILO.,.GRAM.)
);
#367=MASS_MEASURE_WITH_UNIT(MASS_MEASURE(0.001),#366);
#368=DERIVED_UNIT((#362,#363));
#369=MEASURE_REPRESENTATION_ITEM('density measure',
POSITIVE_RATIO_MEASURE(1.),#368);
#370=PROPERTY_DEFINITION_REPRESENTATION(#375,#372);
#371=PROPERTY_DEFINITION_REPRESENTATION(#376,#373);
#372=REPRESENTATION('material name',(#374),#641);
#373=REPRESENTATION('density',(#369),#641);
#374=DESCRIPTIVE_REPRESENTATION_ITEM('Allgemein','Allgemein');
#375=PROPERTY_DEFINITION('material property','material name',#651);
#376=PROPERTY_DEFINITION('material property','density of part',#651);
#377=DATE_TIME_ROLE('creation_date');
#378=APPLIED_DATE_AND_TIME_ASSIGNMENT(#379,#377,(#651));
#379=DATE_AND_TIME(#380,#381);
#380=CALENDAR_DATE(2015,24,4);
#381=LOCAL_TIME(0,0,0.,#382);
#382=COORDINATED_UNIVERSAL_TIME_OFFSET(0,0,.BEHIND.);
#383=AXIS2_PLACEMENT_3D('',#536,#424,#425);
#384=AXIS2_PLACEMENT_3D('',#537,#426,#427);
#385=AXIS2_PLACEMENT_3D('',#546,#432,#433);
#386=AXIS2_PLACEMENT_3D('',#552,#437,#438);
#387=AXIS2_PLACEMENT_3D('',#554,#439,#440);
#388=AXIS2_PLACEMENT_3D('',#556,#441,#442);
#389=AXIS2_PLACEMENT_3D('',#558,#444,#445);
#390=AXIS2_PLACEMENT_3D('',#564,#449,#450);
#391=AXIS2_PLACEMENT_3D('',#566,#451,#452);
#392=AXIS2_PLACEMENT_3D('',#568,#453,#454);
#393=AXIS2_PLACEMENT_3D('',#570,#456,#457);
#394=AXIS2_PLACEMENT_3D('',#576,#461,#462);
#395=AXIS2_PLACEMENT_3D('',#582,#466,#467);
#396=AXIS2_PLACEMENT_3D('',#584,#468,#469);
#397=AXIS2_PLACEMENT_3D('',#586,#470,#471);
#398=AXIS2_PLACEMENT_3D('',#588,#473,#474);
#399=AXIS2_PLACEMENT_3D('',#594,#478,#479);
#400=AXIS2_PLACEMENT_3D('',#596,#480,#481);
#401=AXIS2_PLACEMENT_3D('',#598,#482,#483);
#402=AXIS2_PLACEMENT_3D('',#600,#485,#486);
#403=AXIS2_PLACEMENT_3D('',#606,#490,#491);
#404=AXIS2_PLACEMENT_3D('',#607,#492,#493);
#405=AXIS2_PLACEMENT_3D('',#608,#494,#495);
#406=AXIS2_PLACEMENT_3D('',#609,#496,#497);
#407=AXIS2_PLACEMENT_3D('',#610,#498,#499);
#408=AXIS2_PLACEMENT_3D('',#612,#500,#501);
#409=AXIS2_PLACEMENT_3D('',#613,#502,#503);
#410=AXIS2_PLACEMENT_3D('',#615,#504,#505);
#411=AXIS2_PLACEMENT_3D('',#617,#507,#508);
#412=AXIS2_PLACEMENT_3D('',#620,#509,#510);
#413=AXIS2_PLACEMENT_3D('',#621,#511,#512);
#414=AXIS2_PLACEMENT_3D('',#623,#514,#515);
#415=AXIS2_PLACEMENT_3D('',#625,#516,#517);
#416=AXIS2_PLACEMENT_3D('',#626,#518,#519);
#417=AXIS2_PLACEMENT_3D('',#627,#520,#521);
#418=AXIS2_PLACEMENT_3D('',#629,#522,#523);
#419=AXIS2_PLACEMENT_3D('',#630,#524,#525);
#420=AXIS2_PLACEMENT_3D('',#633,#527,#528);
#421=AXIS2_PLACEMENT_3D('',#634,#529,#530);
#422=AXIS2_PLACEMENT_3D('',#636,#531,#532);
#423=AXIS2_PLACEMENT_3D('',#638,#534,#535);
#424=DIRECTION('axis',(0.,0.,1.));
#425=DIRECTION('refdir',(1.,0.,0.));
#426=DIRECTION('center_axis',(0.,0.965925826289068,-0.258819045102521));
#427=DIRECTION('ref_axis',(1.,0.,0.));
#428=DIRECTION('',(-1.,0.,0.));
#429=DIRECTION('',(0.,-0.258819045102521,-0.965925826289068));
#430=DIRECTION('',(1.,0.,0.));
#431=DIRECTION('',(-0.250562807085732,-0.250562807085732,-0.935113126531029));
#432=DIRECTION('center_axis',(0.965925826289068,-6.82431967907583E-16,-0.258819045102521));
#433=DIRECTION('ref_axis',(-7.06505561125099E-16,-1.,0.));
#434=DIRECTION('',(7.06505561125099E-16,1.,0.));
#435=DIRECTION('',(-7.06505561125099E-16,-1.,0.));
#436=DIRECTION('',(-0.258819045102521,0.,-0.965925826289068));
#437=DIRECTION('center_axis',(0.,0.,1.));
#438=DIRECTION('ref_axis',(1.,0.,0.));
#439=DIRECTION('center_axis',(0.,0.,1.));
#440=DIRECTION('ref_axis',(1.,0.,0.));
#441=DIRECTION('center_axis',(0.,0.,-1.));
#442=DIRECTION('ref_axis',(1.,0.,0.));
#443=DIRECTION('',(0.,-0.258819045102521,-0.965925826289068));
#444=DIRECTION('center_axis',(0.,0.965925826289068,-0.258819045102521));
#445=DIRECTION('ref_axis',(1.,0.,0.));
#446=DIRECTION('',(-1.,0.,0.));
#447=DIRECTION('',(1.,0.,0.));
#448=DIRECTION('',(0.,-0.258819045102522,-0.965925826289068));
#449=DIRECTION('center_axis',(0.,0.,1.));
#450=DIRECTION('ref_axis',(0.,1.,0.));
#451=DIRECTION('center_axis',(0.,0.,1.));
#452=DIRECTION('ref_axis',(0.,1.,0.));
#453=DIRECTION('center_axis',(0.,0.,-1.));
#454=DIRECTION('ref_axis',(0.,1.,0.));
#455=DIRECTION('',(0.258819045102521,0.,-0.965925826289068));
#456=DIRECTION('center_axis',(-0.965925826289068,6.82431967907584E-16,-0.258819045102521));
#457=DIRECTION('ref_axis',(7.065055611251E-16,1.,0.));
#458=DIRECTION('',(-7.065055611251E-16,-1.,0.));
#459=DIRECTION('',(7.065055611251E-16,1.,0.));
#460=DIRECTION('',(0.250562807085731,-0.250562807085731,-0.935113126531029));
#461=DIRECTION('center_axis',(-2.06229440851194E-16,0.965925826289068,-0.258819045102521));
#462=DIRECTION('ref_axis',(1.,2.13504427812531E-16,0.));
#463=DIRECTION('',(-1.,-2.13504427812531E-16,0.));
#464=DIRECTION('',(1.,2.13504427812531E-16,0.));
#465=DIRECTION('',(0.,-0.258819045102521,-0.965925826289068));
#466=DIRECTION('center_axis',(0.,0.,1.));
#467=DIRECTION('ref_axis',(0.,1.,0.));
#468=DIRECTION('center_axis',(0.,0.,1.));
#469=DIRECTION('ref_axis',(0.,1.,0.));
#470=DIRECTION('center_axis',(0.,0.,-1.));
#471=DIRECTION('ref_axis',(0.,1.,0.));
#472=DIRECTION('',(0.232064954760896,0.114599977659702,-0.965925826289068));
#473=DIRECTION('center_axis',(-0.866078201823836,-0.427692939172264,-0.258819045102521));
#474=DIRECTION('ref_axis',(-0.442780312454624,0.896630132720614,0.));
#475=DIRECTION('',(0.442780312454624,-0.896630132720614,0.));
#476=DIRECTION('',(-0.442780312454624,0.896630132720614,0.));
#477=DIRECTION('',(0.232064954760896,0.114599977659703,-0.965925826289068));
#478=DIRECTION('center_axis',(0.,0.,1.));
#479=DIRECTION('ref_axis',(-0.896630132720612,-0.442780312454628,0.));
#480=DIRECTION('center_axis',(0.,0.,1.));
#481=DIRECTION('ref_axis',(-0.896630132720612,-0.442780312454628,0.));
#482=DIRECTION('center_axis',(0.,0.,-1.));
#483=DIRECTION('ref_axis',(-0.896630132720612,-0.442780312454628,0.));
#484=DIRECTION('',(-0.232064954760896,0.114599977659701,-0.965925826289068));
#485=DIRECTION('center_axis',(0.866078201823836,-0.427692939172264,-0.258819045102521));
#486=DIRECTION('ref_axis',(-0.442780312454624,-0.896630132720614,0.));
#487=DIRECTION('',(0.442780312454624,0.896630132720614,0.));
#488=DIRECTION('',(-0.442780312454624,-0.896630132720614,0.));
#489=DIRECTION('',(-0.232064954760895,0.114599977659701,-0.965925826289068));
#490=DIRECTION('center_axis',(0.,0.,1.));
#491=DIRECTION('ref_axis',(0.896630132720614,-0.442780312454624,0.));
#492=DIRECTION('center_axis',(0.,0.,1.));
#493=DIRECTION('ref_axis',(0.896630132720614,-0.442780312454624,0.));
#494=DIRECTION('center_axis',(0.,0.,-1.));
#495=DIRECTION('ref_axis',(0.896630132720614,-0.442780312454624,0.));
#496=DIRECTION('center_axis',(0.,0.,1.));
#497=DIRECTION('ref_axis',(1.,0.,0.));
#498=DIRECTION('center_axis',(0.,1.83697019872103E-16,-1.));
#499=DIRECTION('ref_axis',(-1.,0.,0.));
#500=DIRECTION('center_axis',(0.,-1.83697019872103E-16,1.));
#501=DIRECTION('ref_axis',(0.,-1.,-1.83697019872103E-16));
#502=DIRECTION('center_axis',(0.,-1.83697019872103E-16,1.));
#503=DIRECTION('ref_axis',(0.,-1.,-1.83697019872103E-16));
#504=DIRECTION('center_axis',(0.,-1.83697019872103E-16,1.));
#505=DIRECTION('ref_axis',(0.,-1.,-1.83697019872103E-16));
#506=DIRECTION('',(8.65956056235493E-17,-0.707106781186547,-0.707106781186548));
#507=DIRECTION('center_axis',(0.,-1.83697019872103E-16,1.));
#508=DIRECTION('ref_axis',(0.,-1.,-1.83697019872103E-16));
#509=DIRECTION('center_axis',(0.,-1.83697019872103E-16,1.));
#510=DIRECTION('ref_axis',(0.,-1.,-1.83697019872103E-16));
#511=DIRECTION('center_axis',(0.,-1.83697019872103E-16,1.));
#512=DIRECTION('ref_axis',(0.,-1.,-1.83697019872103E-16));
#513=DIRECTION('',(0.,1.83697019872103E-16,-1.));
#514=DIRECTION('center_axis',(0.,-1.83697019872103E-16,1.));
#515=DIRECTION('ref_axis',(1.,0.,0.));
#516=DIRECTION('center_axis',(1.22464679914735E-16,-1.,-1.83697019872103E-16));
#517=DIRECTION('ref_axis',(-1.,-1.22464679914735E-16,0.));
#518=DIRECTION('center_axis',(0.,9.18485099360515E-17,-1.));
#519=DIRECTION('ref_axis',(1.,0.,0.));
#520=DIRECTION('center_axis',(0.,0.,-1.));
#521=DIRECTION('ref_axis',(-1.,0.,0.));
#522=DIRECTION('center_axis',(0.,0.,1.));
#523=DIRECTION('ref_axis',(-1.,0.,0.));
#524=DIRECTION('center_axis',(0.,0.,1.));
#525=DIRECTION('ref_axis',(-1.,0.,0.));
#526=DIRECTION('',(0.499999999999999,-6.12323399573676E-17,0.866025403784439));
#527=DIRECTION('center_axis',(0.,0.,-1.));
#528=DIRECTION('ref_axis',(-1.,0.,0.));
#529=DIRECTION('center_axis',(0.,0.,1.));
#530=DIRECTION('ref_axis',(-1.,0.,0.));
#531=DIRECTION('center_axis',(0.,0.,-1.));
#532=DIRECTION('ref_axis',(-1.,0.,0.));
#533=DIRECTION('',(0.,0.,-1.));
#534=DIRECTION('center_axis',(0.,0.,-1.));
#535=DIRECTION('ref_axis',(-1.,0.,0.));
#536=CARTESIAN_POINT('',(0.,0.,0.));
#537=CARTESIAN_POINT('Origin',(1.,-1.,4.));
#538=CARTESIAN_POINT('',(1.,-1.16076951545867,3.4));
#539=CARTESIAN_POINT('',(0.189230484541323,-1.16076951545867,3.4));
#540=CARTESIAN_POINT('',(1.,-1.16076951545867,3.4));
#541=CARTESIAN_POINT('',(1.,-1.,4.));
#542=CARTESIAN_POINT('',(1.,-1.,4.));
#543=CARTESIAN_POINT('',(0.349999999999997,-1.,4.));
#544=CARTESIAN_POINT('',(0.5,-1.,4.));
#545=CARTESIAN_POINT('',(0.370404059095769,-0.979595940904229,4.07614898522606));
#546=CARTESIAN_POINT('Origin',(0.349999999999997,-1.,4.));
#547=CARTESIAN_POINT('',(0.189230484541326,3.125,3.4));
#548=CARTESIAN_POINT('',(0.189230484541323,-1.,3.4));
#549=CARTESIAN_POINT('',(0.35,3.125,4.));
#550=CARTESIAN_POINT('',(0.349999999999997,-0.5,4.));
#551=CARTESIAN_POINT('',(0.35,3.125,4.));
#552=CARTESIAN_POINT('Origin',(0.175,3.125,4.));
#553=CARTESIAN_POINT('',(0.175,3.13923048454133,3.4));
#554=CARTESIAN_POINT('Origin',(0.175,3.125,3.4));
#555=CARTESIAN_POINT('',(0.175,3.3,4.));
#556=CARTESIAN_POINT('Origin',(0.175,3.125,4.));
#557=CARTESIAN_POINT('',(0.175,3.3,4.));
#558=CARTESIAN_POINT('Origin',(0.175,3.3,4.));
#559=CARTESIAN_POINT('',(-0.175,3.13923048454133,3.4));
#560=CARTESIAN_POINT('',(0.175,3.13923048454133,3.4));
#561=CARTESIAN_POINT('',(-0.175,3.3,4.));
#562=CARTESIAN_POINT('',(0.0875,3.3,4.));
#563=CARTESIAN_POINT('',(-0.175,3.3,4.));
#564=CARTESIAN_POINT('Origin',(-0.175,3.125,4.));
#565=CARTESIAN_POINT('',(-0.189230484541326,3.125,3.4));
#566=CARTESIAN_POINT('Origin',(-0.175,3.125,3.4));
#567=CARTESIAN_POINT('',(-0.35,3.125,4.));
#568=CARTESIAN_POINT('Origin',(-0.175,3.125,4.));
#569=CARTESIAN_POINT('',(-0.35,3.125,4.));
#570=CARTESIAN_POINT('Origin',(-0.35,3.125,4.));
#571=CARTESIAN_POINT('',(-0.189230484541329,-1.16076951545867,3.4));
#572=CARTESIAN_POINT('',(-0.189230484541326,3.125,3.4));
#573=CARTESIAN_POINT('',(-0.350000000000003,-1.,4.));
#574=CARTESIAN_POINT('',(-0.350000000000001,1.5625,4.));
#575=CARTESIAN_POINT('',(-0.479487298107783,-0.87051270189222,4.48325317547306));
#576=CARTESIAN_POINT('Origin',(-0.350000000000003,-1.,4.));
#577=CARTESIAN_POINT('',(-1.,-1.16076951545867,3.4));
#578=CARTESIAN_POINT('',(-0.350000000000003,-1.16076951545867,3.4));
#579=CARTESIAN_POINT('',(-1.,-1.,4.));
#580=CARTESIAN_POINT('',(-0.175000000000001,-1.,4.));
#581=CARTESIAN_POINT('',(-1.,-1.,4.));
#582=CARTESIAN_POINT('Origin',(-1.,-1.175,4.));
#583=CARTESIAN_POINT('',(-1.01275948124297,-1.18130097839159,3.4));
#584=CARTESIAN_POINT('Origin',(-1.,-1.175,3.4));
#585=CARTESIAN_POINT('',(-1.15691027322611,-1.25248655467956,4.));
#586=CARTESIAN_POINT('Origin',(-1.,-1.175,4.));
#587=CARTESIAN_POINT('',(-1.15691027322611,-1.25248655467956,4.));
#588=CARTESIAN_POINT('Origin',(-1.15691027322611,-1.25248655467956,4.));
#589=CARTESIAN_POINT('',(-0.0127594812429681,-3.20630097839159,3.4));
#590=CARTESIAN_POINT('',(-1.01275948124297,-1.18130097839159,3.4));
#591=CARTESIAN_POINT('',(-0.156910273226107,-3.27748655467956,4.));
#592=CARTESIAN_POINT('',(-1.29212654574173,-0.978673602835422,4.));
#593=CARTESIAN_POINT('',(-0.156910273226107,-3.27748655467956,4.));
#594=CARTESIAN_POINT('Origin',(0.,-3.2,4.));
#595=CARTESIAN_POINT('',(0.0127594812429684,-3.20630097839159,3.4));
#596=CARTESIAN_POINT('Origin',(0.,-3.2,3.4));
#597=CARTESIAN_POINT('',(0.156910273226108,-3.27748655467956,4.));
#598=CARTESIAN_POINT('Origin',(0.,-3.2,4.));
#599=CARTESIAN_POINT('',(0.156910273226108,-3.27748655467956,4.));
#600=CARTESIAN_POINT('Origin',(0.156910273226108,-3.27748655467956,4.));
#601=CARTESIAN_POINT('',(1.01275948124297,-1.18130097839159,3.4));
#602=CARTESIAN_POINT('',(0.0127594812429684,-3.20630097839159,3.4));
#603=CARTESIAN_POINT('',(1.15691027322611,-1.25248655467956,4.));
#604=CARTESIAN_POINT('',(0.792126545741731,-1.99117360283542,4.));
#605=CARTESIAN_POINT('',(1.15691027322611,-1.25248655467956,4.));
#606=CARTESIAN_POINT('Origin',(1.,-1.175,4.));
#607=CARTESIAN_POINT('Origin',(1.,-1.175,3.4));
#608=CARTESIAN_POINT('Origin',(1.,-1.175,4.));
#609=CARTESIAN_POINT('Origin',(-6.93889390390723E-17,-0.0374999999999995,
3.4));
#610=CARTESIAN_POINT('Origin',(0.,-0.849999999999999,-9.8));
#611=CARTESIAN_POINT('',(-2.0818995585505E-16,1.7,-9.8));
#612=CARTESIAN_POINT('Origin',(0.,1.80023079474661E-15,-9.8));
#613=CARTESIAN_POINT('Origin',(0.,1.77267624176579E-15,-9.65));
#614=CARTESIAN_POINT('',(-2.44929359829471E-16,2.,-9.5));
#615=CARTESIAN_POINT('Origin',(0.,1.74512168878498E-15,-9.5));
#616=CARTESIAN_POINT('',(-2.2655965784226E-16,1.85,-9.65));
#617=CARTESIAN_POINT('Origin',(0.,8.89700009676531E-16,-4.84330127018922));
#618=CARTESIAN_POINT('',(-2.,-2.29020731248597E-16,-0.186602540378444));
#619=CARTESIAN_POINT('',(-2.44929359829471E-16,2.,-0.186602540378443));
#620=CARTESIAN_POINT('Origin',(0.,3.42783305680839E-17,-0.186602540378444));
#621=CARTESIAN_POINT('Origin',(0.,3.42783305680839E-17,-0.186602540378444));
#622=CARTESIAN_POINT('',(-2.44929359829471E-16,2.,-4.84330127018922));
#623=CARTESIAN_POINT('Origin',(0.,0.,-0.0999999999999998));
#624=CARTESIAN_POINT('',(-2.05,-2.69422295812418E-16,-1.23730182069603E-32));
#625=CARTESIAN_POINT('Origin',(-2.05,-2.51052593825207E-16,-0.0999999999999998));
#626=CARTESIAN_POINT('Origin',(0.,-9.18485099360513E-18,0.));
#627=CARTESIAN_POINT('Origin',(0.,0.,0.));
#628=CARTESIAN_POINT('',(3.92679491924311,4.80893682875917E-16,0.));
#629=CARTESIAN_POINT('Origin',(0.,0.,0.));
#630=CARTESIAN_POINT('Origin',(0.,0.,0.15));
#631=CARTESIAN_POINT('',(4.1,-5.02105187650415E-16,0.3));
#632=CARTESIAN_POINT('',(4.01339745962156,-4.91499435263166E-16,0.15));
#633=CARTESIAN_POINT('Origin',(0.,0.,0.3));
#634=CARTESIAN_POINT('Origin',(0.,0.,0.));
#635=CARTESIAN_POINT('',(4.1,5.02105187650415E-16,4.));
#636=CARTESIAN_POINT('Origin',(0.,0.,4.));
#637=CARTESIAN_POINT('',(4.1,5.02105187650415E-16,0.));
#638=CARTESIAN_POINT('Origin',(0.,0.,4.));
#639=UNCERTAINTY_MEASURE_WITH_UNIT(LENGTH_MEASURE(0.01),#643,
'DISTANCE_ACCURACY_VALUE',
'Maximum model space distance between geometric entities at asserted c
onnectivities');
#640=UNCERTAINTY_MEASURE_WITH_UNIT(LENGTH_MEASURE(0.01),#643,
'DISTANCE_ACCURACY_VALUE',
'Maximum model space distance between geometric entities at asserted c
onnectivities');
#641=(
GEOMETRIC_REPRESENTATION_CONTEXT(3)
GLOBAL_UNCERTAINTY_ASSIGNED_CONTEXT((#639))
GLOBAL_UNIT_ASSIGNED_CONTEXT((#643,#645,#646))
REPRESENTATION_CONTEXT('','3D')
);
#642=(
GEOMETRIC_REPRESENTATION_CONTEXT(3)
GLOBAL_UNCERTAINTY_ASSIGNED_CONTEXT((#640))
GLOBAL_UNIT_ASSIGNED_CONTEXT((#643,#645,#646))
REPRESENTATION_CONTEXT('','3D')
);
#643=(
LENGTH_UNIT()
NAMED_UNIT(*)
SI_UNIT(.MILLI.,.METRE.)
);
#644=(
LENGTH_UNIT()
NAMED_UNIT(*)
SI_UNIT(.CENTI.,.METRE.)
);
#645=(
NAMED_UNIT(*)
PLANE_ANGLE_UNIT()
SI_UNIT($,.RADIAN.)
);
#646=(
NAMED_UNIT(*)
SI_UNIT($,.STERADIAN.)
SOLID_ANGLE_UNIT()
);
#647=SHAPE_DEFINITION_REPRESENTATION(#648,#649);
#648=PRODUCT_DEFINITION_SHAPE('',$,#651);
#649=SHAPE_REPRESENTATION('',(#383),#641);
#650=PRODUCT_DEFINITION_CONTEXT('part definition',#655,'design');
#651=PRODUCT_DEFINITION('2016-05-00 Stelleinsatz',
'1316-05-00 G Stelleinsatz',#652,#650);
#652=PRODUCT_DEFINITION_FORMATION('',$,#657);
#653=PRODUCT_RELATED_PRODUCT_CATEGORY('1316-05-00 G Stelleinsatz',
'1316-05-00 G Stelleinsatz',(#657));
#654=APPLICATION_PROTOCOL_DEFINITION('international standard',
'automotive_design',2009,#655);
#655=APPLICATION_CONTEXT(
'Core Data for Automotive Mechanical Design Process');
#656=PRODUCT_CONTEXT('part definition',#655,'mechanical');
#657=PRODUCT('2016-05-00 Stelleinsatz','1316-05-00 G Stelleinsatz',$,(#656));
#658=PRESENTATION_STYLE_ASSIGNMENT((#659));
#659=SURFACE_STYLE_USAGE(.BOTH.,#662);
#660=SURFACE_STYLE_RENDERING_WITH_PROPERTIES($,#666,(#661));
#661=SURFACE_STYLE_TRANSPARENT(0.);
#662=SURFACE_SIDE_STYLE('',(#663,#660));
#663=SURFACE_STYLE_FILL_AREA(#664);
#664=FILL_AREA_STYLE('',(#665));
#665=FILL_AREA_STYLE_COLOUR('',#666);
#666=COLOUR_RGB('',0.749019607843137,0.749019607843137,0.749019607843137);
ENDSEC;
END-ISO-10303-21;
