ISO-10303-21;
HEADER;
/* Generated by software containing ST-Developer
 * from STEP Tools, Inc. (www.steptools.com) 
 */

FILE_DESCRIPTION(
/* description */ (''),
/* implementation_level */ '2;1');

FILE_NAME(
/* name */ 'Dati-7000_G$16$00.stp',
/* time_stamp */ '2025-09-02T15:56:04+02:00',
/* author */ ('olafg'),
/* organization */ (''),
/* preprocessor_version */ 'ST-DEVELOPER v20',
/* originating_system */ 'Autodesk Inventor 2024',
/* authorisation */ '');

FILE_SCHEMA (('AUTOMOTIVE_DESIGN { 1 0 10303 214 3 1 1 }'));
ENDSEC;

DATA;
#10=MECHANICAL_DESIGN_GEOMETRIC_PRESENTATION_REPRESENTATION('',(#13),#552);
#11=SHAPE_REPRESENTATION_RELATIONSHIP('SRR','None',#559,#12);
#12=ADVANCED_BREP_SHAPE_REPRESENTATION('',(#14),#551);
#13=STYLED_ITEM('',(#568),#14);
#14=MANIFOLD_SOLID_BREP('Volumenk\X\F6rper1',#313);
#15=FACE_BOUND('',#72,.T.);
#16=FACE_BOUND('',#76,.T.);
#17=TOROIDAL_SURFACE('',#358,1.8,0.1);
#18=CYLINDRICAL_SURFACE('',#355,1.75);
#19=CYLINDRICAL_SURFACE('',#365,4.2);
#20=CIRCLE('',#342,0.253611668924562);
#21=CIRCLE('',#343,0.175);
#22=CIRCLE('',#346,0.253611668924562);
#23=CIRCLE('',#347,0.175);
#24=CIRCLE('',#352,1.45);
#25=CIRCLE('',#354,1.75);
#26=CIRCLE('',#356,1.75);
#27=CIRCLE('',#357,1.75);
#28=CIRCLE('',#359,0.1);
#29=CIRCLE('',#360,1.8);
#30=CIRCLE('',#362,4.02679491924311);
#31=CIRCLE('',#364,4.2);
#32=CIRCLE('',#366,4.2);
#33=CONICAL_SURFACE('',#341,0.175,0.0523598775598299);
#34=CONICAL_SURFACE('',#345,0.175,0.0523598775598299);
#35=CONICAL_SURFACE('',#353,1.6,0.785398163397447);
#36=CONICAL_SURFACE('',#363,4.11339745962156,0.523598775598298);
#37=FACE_OUTER_BOUND('',#56,.T.);
#38=FACE_OUTER_BOUND('',#57,.T.);
#39=FACE_OUTER_BOUND('',#58,.T.);
#40=FACE_OUTER_BOUND('',#59,.T.);
#41=FACE_OUTER_BOUND('',#60,.T.);
#42=FACE_OUTER_BOUND('',#61,.T.);
#43=FACE_OUTER_BOUND('',#62,.T.);
#44=FACE_OUTER_BOUND('',#63,.T.);
#45=FACE_OUTER_BOUND('',#64,.T.);
#46=FACE_OUTER_BOUND('',#65,.T.);
#47=FACE_OUTER_BOUND('',#66,.T.);
#48=FACE_OUTER_BOUND('',#67,.T.);
#49=FACE_OUTER_BOUND('',#68,.T.);
#50=FACE_OUTER_BOUND('',#69,.T.);
#51=FACE_OUTER_BOUND('',#70,.T.);
#52=FACE_OUTER_BOUND('',#71,.T.);
#53=FACE_OUTER_BOUND('',#73,.T.);
#54=FACE_OUTER_BOUND('',#74,.T.);
#55=FACE_OUTER_BOUND('',#75,.T.);
#56=EDGE_LOOP('',(#200,#201,#202,#203));
#57=EDGE_LOOP('',(#204,#205,#206,#207,#208,#209));
#58=EDGE_LOOP('',(#210,#211,#212,#213));
#59=EDGE_LOOP('',(#214,#215,#216));
#60=EDGE_LOOP('',(#217,#218,#219,#220));
#61=EDGE_LOOP('',(#221,#222,#223,#224));
#62=EDGE_LOOP('',(#225,#226,#227,#228));
#63=EDGE_LOOP('',(#229,#230,#231,#232));
#64=EDGE_LOOP('',(#233,#234,#235,#236));
#65=EDGE_LOOP('',(#237,#238,#239,#240));
#66=EDGE_LOOP('',(#241,#242,#243,#244,#245,#246));
#67=EDGE_LOOP('',(#247));
#68=EDGE_LOOP('',(#248,#249,#250,#251));
#69=EDGE_LOOP('',(#252,#253,#254,#255,#256));
#70=EDGE_LOOP('',(#257,#258,#259,#260,#261));
#71=EDGE_LOOP('',(#262));
#72=EDGE_LOOP('',(#263));
#73=EDGE_LOOP('',(#264,#265,#266,#267));
#74=EDGE_LOOP('',(#268,#269,#270,#271));
#75=EDGE_LOOP('',(#272));
#76=EDGE_LOOP('',(#273,#274,#275,#276,#277,#278,#279,#280,#281));
#77=LINE('',#466,#105);
#78=LINE('',#468,#106);
#79=LINE('',#470,#107);
#80=LINE('',#471,#108);
#81=LINE('',#475,#109);
#82=LINE('',#477,#110);
#83=LINE('',#478,#111);
#84=LINE('',#480,#112);
#85=LINE('',#481,#113);
#86=LINE('',#483,#114);
#87=LINE('',#484,#115);
#88=LINE('',#489,#116);
#89=LINE('',#490,#117);
#90=LINE('',#492,#118);
#91=LINE('',#493,#119);
#92=LINE('',#499,#120);
#93=LINE('',#502,#121);
#94=LINE('',#504,#122);
#95=LINE('',#505,#123);
#96=LINE('',#511,#124);
#97=LINE('',#514,#125);
#98=LINE('',#515,#126);
#99=LINE('',#516,#127);
#100=LINE('',#518,#128);
#101=LINE('',#526,#129);
#102=LINE('',#532,#130);
#103=LINE('',#542,#131);
#104=LINE('',#547,#132);
#105=VECTOR('',#372,10.);
#106=VECTOR('',#373,10.);
#107=VECTOR('',#374,10.);
#108=VECTOR('',#375,10.);
#109=VECTOR('',#378,10.);
#110=VECTOR('',#379,10.);
#111=VECTOR('',#380,10.);
#112=VECTOR('',#381,10.);
#113=VECTOR('',#382,10.);
#114=VECTOR('',#385,10.);
#115=VECTOR('',#386,10.);
#116=VECTOR('',#391,10.);
#117=VECTOR('',#392,10.);
#118=VECTOR('',#393,10.);
#119=VECTOR('',#394,10.);
#120=VECTOR('',#401,10.);
#121=VECTOR('',#404,10.);
#122=VECTOR('',#405,10.);
#123=VECTOR('',#406,10.);
#124=VECTOR('',#413,10.);
#125=VECTOR('',#416,10.);
#126=VECTOR('',#417,10.);
#127=VECTOR('',#418,10.);
#128=VECTOR('',#421,10.);
#129=VECTOR('',#432,1.6);
#130=VECTOR('',#439,1.75);
#131=VECTOR('',#452,4.11339745962156);
#132=VECTOR('',#459,4.2);
#133=VERTEX_POINT('',#464);
#134=VERTEX_POINT('',#465);
#135=VERTEX_POINT('',#467);
#136=VERTEX_POINT('',#469);
#137=VERTEX_POINT('',#473);
#138=VERTEX_POINT('',#474);
#139=VERTEX_POINT('',#476);
#140=VERTEX_POINT('',#479);
#141=VERTEX_POINT('',#487);
#142=VERTEX_POINT('',#488);
#143=VERTEX_POINT('',#491);
#144=VERTEX_POINT('',#495);
#145=VERTEX_POINT('',#497);
#146=VERTEX_POINT('',#501);
#147=VERTEX_POINT('',#503);
#148=VERTEX_POINT('',#507);
#149=VERTEX_POINT('',#509);
#150=VERTEX_POINT('',#513);
#151=VERTEX_POINT('',#521);
#152=VERTEX_POINT('',#524);
#153=VERTEX_POINT('',#528);
#154=VERTEX_POINT('',#529);
#155=VERTEX_POINT('',#534);
#156=VERTEX_POINT('',#538);
#157=VERTEX_POINT('',#541);
#158=VERTEX_POINT('',#545);
#159=EDGE_CURVE('',#133,#134,#77,.T.);
#160=EDGE_CURVE('',#133,#135,#78,.T.);
#161=EDGE_CURVE('',#136,#135,#79,.T.);
#162=EDGE_CURVE('',#134,#136,#80,.T.);
#163=EDGE_CURVE('',#137,#138,#81,.T.);
#164=EDGE_CURVE('',#137,#139,#82,.T.);
#165=EDGE_CURVE('',#134,#139,#83,.T.);
#166=EDGE_CURVE('',#140,#136,#84,.T.);
#167=EDGE_CURVE('',#138,#140,#85,.T.);
#168=EDGE_CURVE('',#138,#133,#86,.T.);
#169=EDGE_CURVE('',#135,#140,#87,.T.);
#170=EDGE_CURVE('',#141,#142,#88,.T.);
#171=EDGE_CURVE('',#137,#141,#89,.T.);
#172=EDGE_CURVE('',#143,#137,#90,.T.);
#173=EDGE_CURVE('',#143,#142,#91,.T.);
#174=EDGE_CURVE('',#142,#144,#20,.T.);
#175=EDGE_CURVE('',#145,#143,#21,.T.);
#176=EDGE_CURVE('',#145,#144,#92,.T.);
#177=EDGE_CURVE('',#144,#146,#93,.T.);
#178=EDGE_CURVE('',#147,#145,#94,.T.);
#179=EDGE_CURVE('',#147,#146,#95,.T.);
#180=EDGE_CURVE('',#146,#148,#22,.T.);
#181=EDGE_CURVE('',#149,#147,#23,.T.);
#182=EDGE_CURVE('',#149,#148,#96,.T.);
#183=EDGE_CURVE('',#148,#150,#97,.T.);
#184=EDGE_CURVE('',#139,#149,#98,.T.);
#185=EDGE_CURVE('',#139,#150,#99,.T.);
#186=EDGE_CURVE('',#150,#141,#100,.T.);
#187=EDGE_CURVE('',#151,#151,#24,.T.);
#188=EDGE_CURVE('',#152,#152,#25,.T.);
#189=EDGE_CURVE('',#152,#151,#101,.T.);
#190=EDGE_CURVE('',#153,#154,#26,.T.);
#191=EDGE_CURVE('',#154,#153,#27,.T.);
#192=EDGE_CURVE('',#154,#152,#102,.T.);
#193=EDGE_CURVE('',#153,#155,#28,.T.);
#194=EDGE_CURVE('',#155,#155,#29,.T.);
#195=EDGE_CURVE('',#156,#156,#30,.T.);
#196=EDGE_CURVE('',#156,#157,#103,.T.);
#197=EDGE_CURVE('',#157,#157,#31,.T.);
#198=EDGE_CURVE('',#158,#158,#32,.T.);
#199=EDGE_CURVE('',#158,#157,#104,.T.);
#200=ORIENTED_EDGE('',*,*,#159,.F.);
#201=ORIENTED_EDGE('',*,*,#160,.T.);
#202=ORIENTED_EDGE('',*,*,#161,.F.);
#203=ORIENTED_EDGE('',*,*,#162,.F.);
#204=ORIENTED_EDGE('',*,*,#163,.F.);
#205=ORIENTED_EDGE('',*,*,#164,.T.);
#206=ORIENTED_EDGE('',*,*,#165,.F.);
#207=ORIENTED_EDGE('',*,*,#162,.T.);
#208=ORIENTED_EDGE('',*,*,#166,.F.);
#209=ORIENTED_EDGE('',*,*,#167,.F.);
#210=ORIENTED_EDGE('',*,*,#168,.F.);
#211=ORIENTED_EDGE('',*,*,#167,.T.);
#212=ORIENTED_EDGE('',*,*,#169,.F.);
#213=ORIENTED_EDGE('',*,*,#160,.F.);
#214=ORIENTED_EDGE('',*,*,#169,.T.);
#215=ORIENTED_EDGE('',*,*,#166,.T.);
#216=ORIENTED_EDGE('',*,*,#161,.T.);
#217=ORIENTED_EDGE('',*,*,#170,.F.);
#218=ORIENTED_EDGE('',*,*,#171,.F.);
#219=ORIENTED_EDGE('',*,*,#172,.F.);
#220=ORIENTED_EDGE('',*,*,#173,.T.);
#221=ORIENTED_EDGE('',*,*,#174,.F.);
#222=ORIENTED_EDGE('',*,*,#173,.F.);
#223=ORIENTED_EDGE('',*,*,#175,.F.);
#224=ORIENTED_EDGE('',*,*,#176,.T.);
#225=ORIENTED_EDGE('',*,*,#177,.F.);
#226=ORIENTED_EDGE('',*,*,#176,.F.);
#227=ORIENTED_EDGE('',*,*,#178,.F.);
#228=ORIENTED_EDGE('',*,*,#179,.T.);
#229=ORIENTED_EDGE('',*,*,#180,.F.);
#230=ORIENTED_EDGE('',*,*,#179,.F.);
#231=ORIENTED_EDGE('',*,*,#181,.F.);
#232=ORIENTED_EDGE('',*,*,#182,.T.);
#233=ORIENTED_EDGE('',*,*,#183,.F.);
#234=ORIENTED_EDGE('',*,*,#182,.F.);
#235=ORIENTED_EDGE('',*,*,#184,.F.);
#236=ORIENTED_EDGE('',*,*,#185,.T.);
#237=ORIENTED_EDGE('',*,*,#186,.F.);
#238=ORIENTED_EDGE('',*,*,#185,.F.);
#239=ORIENTED_EDGE('',*,*,#164,.F.);
#240=ORIENTED_EDGE('',*,*,#171,.T.);
#241=ORIENTED_EDGE('',*,*,#170,.T.);
#242=ORIENTED_EDGE('',*,*,#174,.T.);
#243=ORIENTED_EDGE('',*,*,#177,.T.);
#244=ORIENTED_EDGE('',*,*,#180,.T.);
#245=ORIENTED_EDGE('',*,*,#183,.T.);
#246=ORIENTED_EDGE('',*,*,#186,.T.);
#247=ORIENTED_EDGE('',*,*,#187,.F.);
#248=ORIENTED_EDGE('',*,*,#188,.F.);
#249=ORIENTED_EDGE('',*,*,#189,.T.);
#250=ORIENTED_EDGE('',*,*,#187,.T.);
#251=ORIENTED_EDGE('',*,*,#189,.F.);
#252=ORIENTED_EDGE('',*,*,#190,.F.);
#253=ORIENTED_EDGE('',*,*,#191,.F.);
#254=ORIENTED_EDGE('',*,*,#192,.T.);
#255=ORIENTED_EDGE('',*,*,#188,.T.);
#256=ORIENTED_EDGE('',*,*,#192,.F.);
#257=ORIENTED_EDGE('',*,*,#190,.T.);
#258=ORIENTED_EDGE('',*,*,#191,.T.);
#259=ORIENTED_EDGE('',*,*,#193,.T.);
#260=ORIENTED_EDGE('',*,*,#194,.T.);
#261=ORIENTED_EDGE('',*,*,#193,.F.);
#262=ORIENTED_EDGE('',*,*,#195,.F.);
#263=ORIENTED_EDGE('',*,*,#194,.F.);
#264=ORIENTED_EDGE('',*,*,#195,.T.);
#265=ORIENTED_EDGE('',*,*,#196,.T.);
#266=ORIENTED_EDGE('',*,*,#197,.T.);
#267=ORIENTED_EDGE('',*,*,#196,.F.);
#268=ORIENTED_EDGE('',*,*,#198,.T.);
#269=ORIENTED_EDGE('',*,*,#199,.T.);
#270=ORIENTED_EDGE('',*,*,#197,.F.);
#271=ORIENTED_EDGE('',*,*,#199,.F.);
#272=ORIENTED_EDGE('',*,*,#198,.F.);
#273=ORIENTED_EDGE('',*,*,#165,.T.);
#274=ORIENTED_EDGE('',*,*,#184,.T.);
#275=ORIENTED_EDGE('',*,*,#181,.T.);
#276=ORIENTED_EDGE('',*,*,#178,.T.);
#277=ORIENTED_EDGE('',*,*,#175,.T.);
#278=ORIENTED_EDGE('',*,*,#172,.T.);
#279=ORIENTED_EDGE('',*,*,#163,.T.);
#280=ORIENTED_EDGE('',*,*,#168,.T.);
#281=ORIENTED_EDGE('',*,*,#159,.T.);
#282=PLANE('',#336);
#283=PLANE('',#337);
#284=PLANE('',#338);
#285=PLANE('',#339);
#286=PLANE('',#340);
#287=PLANE('',#344);
#288=PLANE('',#348);
#289=PLANE('',#349);
#290=PLANE('',#350);
#291=PLANE('',#351);
#292=PLANE('',#361);
#293=PLANE('',#367);
#294=ADVANCED_FACE('',(#37),#282,.T.);
#295=ADVANCED_FACE('',(#38),#283,.T.);
#296=ADVANCED_FACE('',(#39),#284,.T.);
#297=ADVANCED_FACE('',(#40),#285,.T.);
#298=ADVANCED_FACE('',(#41),#286,.F.);
#299=ADVANCED_FACE('',(#42),#33,.F.);
#300=ADVANCED_FACE('',(#43),#287,.F.);
#301=ADVANCED_FACE('',(#44),#34,.F.);
#302=ADVANCED_FACE('',(#45),#288,.F.);
#303=ADVANCED_FACE('',(#46),#289,.F.);
#304=ADVANCED_FACE('',(#47),#290,.T.);
#305=ADVANCED_FACE('',(#48),#291,.T.);
#306=ADVANCED_FACE('',(#49),#35,.T.);
#307=ADVANCED_FACE('',(#50),#18,.T.);
#308=ADVANCED_FACE('',(#51),#17,.F.);
#309=ADVANCED_FACE('',(#52,#15),#292,.T.);
#310=ADVANCED_FACE('',(#53),#36,.T.);
#311=ADVANCED_FACE('',(#54),#19,.T.);
#312=ADVANCED_FACE('',(#55,#16),#293,.F.);
#313=CLOSED_SHELL('',(#294,#295,#296,#297,#298,#299,#300,#301,#302,#303,
#304,#305,#306,#307,#308,#309,#310,#311,#312));
#314=DERIVED_UNIT_ELEMENT(#317,1.);
#315=DERIVED_UNIT_ELEMENT(#554,-3.);
#316=DIMENSIONAL_EXPONENTS(0.,1.,0.,0.,0.,0.,0.);
#317=(
CONVERSION_BASED_UNIT('gram',#319)
MASS_UNIT()
NAMED_UNIT(#316)
);
#318=(
MASS_UNIT()
NAMED_UNIT(*)
SI_UNIT(.KILO.,.GRAM.)
);
#319=MASS_MEASURE_WITH_UNIT(MASS_MEASURE(0.001),#318);
#320=DERIVED_UNIT((#314,#315));
#321=MEASURE_REPRESENTATION_ITEM('density measure',
POSITIVE_RATIO_MEASURE(1.),#320);
#322=PROPERTY_DEFINITION_REPRESENTATION(#327,#324);
#323=PROPERTY_DEFINITION_REPRESENTATION(#328,#325);
#324=REPRESENTATION('material name',(#326),#551);
#325=REPRESENTATION('density',(#321),#551);
#326=DESCRIPTIVE_REPRESENTATION_ITEM('Allgemein','Allgemein');
#327=PROPERTY_DEFINITION('material property','material name',#561);
#328=PROPERTY_DEFINITION('material property','density of part',#561);
#329=DATE_TIME_ROLE('creation_date');
#330=APPLIED_DATE_AND_TIME_ASSIGNMENT(#331,#329,(#561));
#331=DATE_AND_TIME(#332,#333);
#332=CALENDAR_DATE(2015,24,4);
#333=LOCAL_TIME(0,0,0.,#334);
#334=COORDINATED_UNIVERSAL_TIME_OFFSET(0,0,.BEHIND.);
#335=AXIS2_PLACEMENT_3D('',#462,#368,#369);
#336=AXIS2_PLACEMENT_3D('',#463,#370,#371);
#337=AXIS2_PLACEMENT_3D('',#472,#376,#377);
#338=AXIS2_PLACEMENT_3D('',#482,#383,#384);
#339=AXIS2_PLACEMENT_3D('',#485,#387,#388);
#340=AXIS2_PLACEMENT_3D('',#486,#389,#390);
#341=AXIS2_PLACEMENT_3D('',#494,#395,#396);
#342=AXIS2_PLACEMENT_3D('',#496,#397,#398);
#343=AXIS2_PLACEMENT_3D('',#498,#399,#400);
#344=AXIS2_PLACEMENT_3D('',#500,#402,#403);
#345=AXIS2_PLACEMENT_3D('',#506,#407,#408);
#346=AXIS2_PLACEMENT_3D('',#508,#409,#410);
#347=AXIS2_PLACEMENT_3D('',#510,#411,#412);
#348=AXIS2_PLACEMENT_3D('',#512,#414,#415);
#349=AXIS2_PLACEMENT_3D('',#517,#419,#420);
#350=AXIS2_PLACEMENT_3D('',#519,#422,#423);
#351=AXIS2_PLACEMENT_3D('',#520,#424,#425);
#352=AXIS2_PLACEMENT_3D('',#522,#426,#427);
#353=AXIS2_PLACEMENT_3D('',#523,#428,#429);
#354=AXIS2_PLACEMENT_3D('',#525,#430,#431);
#355=AXIS2_PLACEMENT_3D('',#527,#433,#434);
#356=AXIS2_PLACEMENT_3D('',#530,#435,#436);
#357=AXIS2_PLACEMENT_3D('',#531,#437,#438);
#358=AXIS2_PLACEMENT_3D('',#533,#440,#441);
#359=AXIS2_PLACEMENT_3D('',#535,#442,#443);
#360=AXIS2_PLACEMENT_3D('',#536,#444,#445);
#361=AXIS2_PLACEMENT_3D('',#537,#446,#447);
#362=AXIS2_PLACEMENT_3D('',#539,#448,#449);
#363=AXIS2_PLACEMENT_3D('',#540,#450,#451);
#364=AXIS2_PLACEMENT_3D('',#543,#453,#454);
#365=AXIS2_PLACEMENT_3D('',#544,#455,#456);
#366=AXIS2_PLACEMENT_3D('',#546,#457,#458);
#367=AXIS2_PLACEMENT_3D('',#548,#460,#461);
#368=DIRECTION('axis',(0.,0.,1.));
#369=DIRECTION('refdir',(1.,0.,0.));
#370=DIRECTION('center_axis',(-0.866025403784439,-0.499999999999999,0.));
#371=DIRECTION('ref_axis',(0.499999999999999,-0.866025403784439,0.));
#372=DIRECTION('',(-0.499999999999999,0.866025403784439,0.));
#373=DIRECTION('',(0.,0.,1.));
#374=DIRECTION('',(0.499999999999999,-0.866025403784439,0.));
#375=DIRECTION('',(0.,0.,1.));
#376=DIRECTION('center_axis',(0.,1.,0.));
#377=DIRECTION('ref_axis',(-1.,0.,0.));
#378=DIRECTION('',(1.,0.,0.));
#379=DIRECTION('',(-1.,0.,0.));
#380=DIRECTION('',(1.,0.,0.));
#381=DIRECTION('',(-1.,0.,0.));
#382=DIRECTION('',(0.,0.,1.));
#383=DIRECTION('center_axis',(0.877755501474302,-0.4791088390247,0.));
#384=DIRECTION('ref_axis',(0.4791088390247,0.877755501474302,0.));
#385=DIRECTION('',(-0.4791088390247,-0.877755501474302,0.));
#386=DIRECTION('',(0.4791088390247,0.877755501474302,0.));
#387=DIRECTION('center_axis',(0.,0.,1.));
#388=DIRECTION('ref_axis',(1.,0.,0.));
#389=DIRECTION('center_axis',(0.998629534754574,0.,0.0523359562429438));
#390=DIRECTION('ref_axis',(0.,-1.,0.));
#391=DIRECTION('',(0.,1.,0.));
#392=DIRECTION('',(0.0522644276887139,-0.052264427688714,-0.997264688634237));
#393=DIRECTION('',(0.,-1.,0.));
#394=DIRECTION('',(0.0523359562429439,0.,-0.998629534754574));
#395=DIRECTION('center_axis',(0.,0.,-1.));
#396=DIRECTION('ref_axis',(1.,0.,0.));
#397=DIRECTION('center_axis',(0.,0.,1.));
#398=DIRECTION('ref_axis',(1.,0.,0.));
#399=DIRECTION('center_axis',(0.,0.,-1.));
#400=DIRECTION('ref_axis',(1.,0.,0.));
#401=DIRECTION('',(0.,0.0523359562429439,-0.998629534754574));
#402=DIRECTION('center_axis',(0.,0.998629534754574,0.0523359562429439));
#403=DIRECTION('ref_axis',(1.,0.,0.));
#404=DIRECTION('',(-1.,0.,0.));
#405=DIRECTION('',(1.,0.,0.));
#406=DIRECTION('',(0.,0.0523359562429432,-0.998629534754574));
#407=DIRECTION('center_axis',(0.,0.,-1.));
#408=DIRECTION('ref_axis',(0.,1.,0.));
#409=DIRECTION('center_axis',(0.,0.,1.));
#410=DIRECTION('ref_axis',(0.,1.,0.));
#411=DIRECTION('center_axis',(0.,0.,-1.));
#412=DIRECTION('ref_axis',(0.,1.,0.));
#413=DIRECTION('',(-0.0523359562429438,0.,-0.998629534754574));
#414=DIRECTION('center_axis',(-0.998629534754574,0.,0.0523359562429438));
#415=DIRECTION('ref_axis',(0.,1.,0.));
#416=DIRECTION('',(0.,-1.,0.));
#417=DIRECTION('',(0.,1.,0.));
#418=DIRECTION('',(-0.0522644276887139,-0.052264427688714,-0.997264688634237));
#419=DIRECTION('center_axis',(0.,-0.998629534754574,0.0523359562429439));
#420=DIRECTION('ref_axis',(-1.,0.,0.));
#421=DIRECTION('',(1.,0.,0.));
#422=DIRECTION('center_axis',(0.,0.,1.));
#423=DIRECTION('ref_axis',(1.,0.,0.));
#424=DIRECTION('center_axis',(0.,1.83697019872103E-16,-1.));
#425=DIRECTION('ref_axis',(-1.,0.,0.));
#426=DIRECTION('center_axis',(0.,-1.83697019872103E-16,1.));
#427=DIRECTION('ref_axis',(0.,-1.,-1.83697019872103E-16));
#428=DIRECTION('center_axis',(0.,-1.83697019872103E-16,1.));
#429=DIRECTION('ref_axis',(0.,-1.,-1.83697019872103E-16));
#430=DIRECTION('center_axis',(0.,-1.83697019872103E-16,1.));
#431=DIRECTION('ref_axis',(0.,-1.,-1.83697019872103E-16));
#432=DIRECTION('',(8.65956056235493E-17,-0.707106781186547,-0.707106781186548));
#433=DIRECTION('center_axis',(0.,-1.83697019872103E-16,1.));
#434=DIRECTION('ref_axis',(0.,-1.,-1.83697019872103E-16));
#435=DIRECTION('center_axis',(0.,-1.83697019872103E-16,1.));
#436=DIRECTION('ref_axis',(0.,-1.,-1.83697019872103E-16));
#437=DIRECTION('center_axis',(0.,-1.83697019872103E-16,1.));
#438=DIRECTION('ref_axis',(0.,-1.,-1.83697019872103E-16));
#439=DIRECTION('',(0.,1.83697019872103E-16,-1.));
#440=DIRECTION('center_axis',(0.,-1.83697019872103E-16,1.));
#441=DIRECTION('ref_axis',(1.,0.,0.));
#442=DIRECTION('center_axis',(1.22464679914735E-16,-1.,-1.83697019872103E-16));
#443=DIRECTION('ref_axis',(-1.,-1.22464679914735E-16,0.));
#444=DIRECTION('center_axis',(0.,9.18485099360515E-17,-1.));
#445=DIRECTION('ref_axis',(1.,0.,0.));
#446=DIRECTION('center_axis',(0.,0.,-1.));
#447=DIRECTION('ref_axis',(-1.,0.,0.));
#448=DIRECTION('center_axis',(0.,0.,1.));
#449=DIRECTION('ref_axis',(-1.,0.,0.));
#450=DIRECTION('center_axis',(0.,0.,1.));
#451=DIRECTION('ref_axis',(-1.,0.,0.));
#452=DIRECTION('',(0.499999999999999,-6.12323399573676E-17,0.866025403784439));
#453=DIRECTION('center_axis',(0.,0.,-1.));
#454=DIRECTION('ref_axis',(-1.,0.,0.));
#455=DIRECTION('center_axis',(0.,0.,1.));
#456=DIRECTION('ref_axis',(-1.,0.,0.));
#457=DIRECTION('center_axis',(0.,0.,-1.));
#458=DIRECTION('ref_axis',(-1.,0.,0.));
#459=DIRECTION('',(0.,0.,-1.));
#460=DIRECTION('center_axis',(0.,0.,-1.));
#461=DIRECTION('ref_axis',(-1.,0.,0.));
#462=CARTESIAN_POINT('',(0.,0.,0.));
#463=CARTESIAN_POINT('Origin',(-1.05,-1.5,5.));
#464=CARTESIAN_POINT('',(0.0294626902520616,-3.36968422439156,5.));
#465=CARTESIAN_POINT('',(-1.05,-1.5,5.));
#466=CARTESIAN_POINT('',(-1.24350952641916,-1.16483166849341,5.));
#467=CARTESIAN_POINT('',(0.0294626902520616,-3.36968422439156,5.5));
#468=CARTESIAN_POINT('',(0.0294626902520616,-3.36968422439156,5.));
#469=CARTESIAN_POINT('',(-1.05,-1.5,5.5));
#470=CARTESIAN_POINT('',(-1.05,-1.5,5.5));
#471=CARTESIAN_POINT('',(-1.05,-1.5,5.));
#472=CARTESIAN_POINT('Origin',(1.05,-1.5,5.));
#473=CARTESIAN_POINT('',(0.35,-1.5,5.));
#474=CARTESIAN_POINT('',(1.05,-1.5,5.));
#475=CARTESIAN_POINT('',(0.525,-1.5,5.));
#476=CARTESIAN_POINT('',(-0.35,-1.5,5.));
#477=CARTESIAN_POINT('',(-0.175,-1.5,5.));
#478=CARTESIAN_POINT('',(0.525,-1.5,5.));
#479=CARTESIAN_POINT('',(1.05,-1.5,5.5));
#480=CARTESIAN_POINT('',(1.05,-1.5,5.5));
#481=CARTESIAN_POINT('',(1.05,-1.5,5.));
#482=CARTESIAN_POINT('Origin',(0.0294626902520616,-3.36968422439156,5.));
#483=CARTESIAN_POINT('',(0.734625387763615,-2.0777847920304,5.));
#484=CARTESIAN_POINT('',(0.0294626902520616,-3.36968422439156,5.5));
#485=CARTESIAN_POINT('Origin',(6.93889390390723E-17,-2.43484211219578,5.5));
#486=CARTESIAN_POINT('Origin',(0.35,-1.5,5.));
#487=CARTESIAN_POINT('',(0.428611668924562,-1.57861166892456,3.5));
#488=CARTESIAN_POINT('',(0.428611668924562,3.125,3.5));
#489=CARTESIAN_POINT('',(0.428611668924562,-1.5,3.5));
#490=CARTESIAN_POINT('',(0.34904395035943,-1.49904395035943,5.01824251387197));
#491=CARTESIAN_POINT('',(0.35,3.125,5.));
#492=CARTESIAN_POINT('',(0.35,-0.75,5.));
#493=CARTESIAN_POINT('',(0.35,3.125,5.));
#494=CARTESIAN_POINT('Origin',(0.175,3.125,5.));
#495=CARTESIAN_POINT('',(0.175,3.37861166892456,3.5));
#496=CARTESIAN_POINT('Origin',(0.175,3.125,3.5));
#497=CARTESIAN_POINT('',(0.175,3.3,5.));
#498=CARTESIAN_POINT('Origin',(0.175,3.125,5.));
#499=CARTESIAN_POINT('',(0.175,3.3,5.));
#500=CARTESIAN_POINT('Origin',(0.175,3.3,5.));
#501=CARTESIAN_POINT('',(-0.175,3.37861166892456,3.5));
#502=CARTESIAN_POINT('',(0.175,3.37861166892456,3.5));
#503=CARTESIAN_POINT('',(-0.175,3.3,5.));
#504=CARTESIAN_POINT('',(0.0875,3.3,5.));
#505=CARTESIAN_POINT('',(-0.175,3.3,5.));
#506=CARTESIAN_POINT('Origin',(-0.175,3.125,5.));
#507=CARTESIAN_POINT('',(-0.428611668924562,3.125,3.5));
#508=CARTESIAN_POINT('Origin',(-0.175,3.125,3.5));
#509=CARTESIAN_POINT('',(-0.35,3.125,5.));
#510=CARTESIAN_POINT('Origin',(-0.175,3.125,5.));
#511=CARTESIAN_POINT('',(-0.35,3.125,5.));
#512=CARTESIAN_POINT('Origin',(-0.35,3.125,5.));
#513=CARTESIAN_POINT('',(-0.428611668924562,-1.57861166892456,3.5));
#514=CARTESIAN_POINT('',(-0.428611668924562,3.125,3.5));
#515=CARTESIAN_POINT('',(-0.35,1.5625,5.));
#516=CARTESIAN_POINT('',(-0.343683243446233,-1.49368324344623,5.12053089522552));
#517=CARTESIAN_POINT('Origin',(-0.35,-1.5,5.));
#518=CARTESIAN_POINT('',(-0.35,-1.57861166892456,3.5));
#519=CARTESIAN_POINT('Origin',(-3.46944695195361E-17,0.900000000000001,
3.5));
#520=CARTESIAN_POINT('Origin',(0.,-0.724999999999998,-16.));
#521=CARTESIAN_POINT('',(-1.77573785876366E-16,1.45,-16.));
#522=CARTESIAN_POINT('Origin',(0.,2.93915231795365E-15,-16.));
#523=CARTESIAN_POINT('Origin',(0.,2.91159776497283E-15,-15.85));
#524=CARTESIAN_POINT('',(-2.14313189850787E-16,1.75,-15.7));
#525=CARTESIAN_POINT('Origin',(0.,2.88404321199202E-15,-15.7));
#526=CARTESIAN_POINT('',(-1.95943487863577E-16,1.6,-15.85));
#527=CARTESIAN_POINT('Origin',(0.,1.45916077128005E-15,-7.94330127018922));
#528=CARTESIAN_POINT('',(-1.75,-1.98404561269913E-16,-0.186602540378444));
#529=CARTESIAN_POINT('',(-2.14313189850787E-16,1.75,-0.186602540378443));
#530=CARTESIAN_POINT('Origin',(0.,3.42783305680839E-17,-0.186602540378444));
#531=CARTESIAN_POINT('Origin',(0.,3.42783305680839E-17,-0.186602540378444));
#532=CARTESIAN_POINT('',(-2.14313189850787E-16,1.75,-7.94330127018922));
#533=CARTESIAN_POINT('Origin',(0.,0.,-0.0999999999999999));
#534=CARTESIAN_POINT('',(-1.8,-2.38806125833734E-16,-1.09669934107148E-32));
#535=CARTESIAN_POINT('Origin',(-1.8,-2.20436423846524E-16,-0.0999999999999999));
#536=CARTESIAN_POINT('Origin',(0.,-9.18485099360514E-18,0.));
#537=CARTESIAN_POINT('Origin',(0.,0.,0.));
#538=CARTESIAN_POINT('',(4.02679491924311,4.9314015086739E-16,0.));
#539=CARTESIAN_POINT('Origin',(0.,0.,0.));
#540=CARTESIAN_POINT('Origin',(0.,0.,0.15));
#541=CARTESIAN_POINT('',(4.2,-5.14351655641888E-16,0.3));
#542=CARTESIAN_POINT('',(4.11339745962156,-5.03745903254639E-16,0.15));
#543=CARTESIAN_POINT('Origin',(0.,0.,0.3));
#544=CARTESIAN_POINT('Origin',(0.,0.,0.));
#545=CARTESIAN_POINT('',(4.2,5.14351655641888E-16,5.));
#546=CARTESIAN_POINT('Origin',(0.,0.,5.));
#547=CARTESIAN_POINT('',(4.2,5.14351655641888E-16,0.));
#548=CARTESIAN_POINT('Origin',(0.,0.,5.));
#549=UNCERTAINTY_MEASURE_WITH_UNIT(LENGTH_MEASURE(0.01),#553,
'DISTANCE_ACCURACY_VALUE',
'Maximum model space distance between geometric entities at asserted c
onnectivities');
#550=UNCERTAINTY_MEASURE_WITH_UNIT(LENGTH_MEASURE(0.01),#553,
'DISTANCE_ACCURACY_VALUE',
'Maximum model space distance between geometric entities at asserted c
onnectivities');
#551=(
GEOMETRIC_REPRESENTATION_CONTEXT(3)
GLOBAL_UNCERTAINTY_ASSIGNED_CONTEXT((#549))
GLOBAL_UNIT_ASSIGNED_CONTEXT((#553,#555,#556))
REPRESENTATION_CONTEXT('','3D')
);
#552=(
GEOMETRIC_REPRESENTATION_CONTEXT(3)
GLOBAL_UNCERTAINTY_ASSIGNED_CONTEXT((#550))
GLOBAL_UNIT_ASSIGNED_CONTEXT((#553,#555,#556))
REPRESENTATION_CONTEXT('','3D')
);
#553=(
LENGTH_UNIT()
NAMED_UNIT(*)
SI_UNIT(.MILLI.,.METRE.)
);
#554=(
LENGTH_UNIT()
NAMED_UNIT(*)
SI_UNIT(.CENTI.,.METRE.)
);
#555=(
NAMED_UNIT(*)
PLANE_ANGLE_UNIT()
SI_UNIT($,.RADIAN.)
);
#556=(
NAMED_UNIT(*)
SI_UNIT($,.STERADIAN.)
SOLID_ANGLE_UNIT()
);
#557=SHAPE_DEFINITION_REPRESENTATION(#558,#559);
#558=PRODUCT_DEFINITION_SHAPE('',$,#561);
#559=SHAPE_REPRESENTATION('',(#335),#551);
#560=PRODUCT_DEFINITION_CONTEXT('part definition',#565,'design');
#561=PRODUCT_DEFINITION('2016-05-00 Stelleinsatz',
'2016-05-00 Stelleinsatz',#562,#560);
#562=PRODUCT_DEFINITION_FORMATION('',$,#567);
#563=PRODUCT_RELATED_PRODUCT_CATEGORY('2016-05-00 Stelleinsatz',
'2016-05-00 Stelleinsatz',(#567));
#564=APPLICATION_PROTOCOL_DEFINITION('international standard',
'automotive_design',2009,#565);
#565=APPLICATION_CONTEXT(
'Core Data for Automotive Mechanical Design Process');
#566=PRODUCT_CONTEXT('part definition',#565,'mechanical');
#567=PRODUCT('2016-05-00 Stelleinsatz','2016-05-00 Stelleinsatz',$,(#566));
#568=PRESENTATION_STYLE_ASSIGNMENT((#569));
#569=SURFACE_STYLE_USAGE(.BOTH.,#572);
#570=SURFACE_STYLE_RENDERING_WITH_PROPERTIES($,#576,(#571));
#571=SURFACE_STYLE_TRANSPARENT(0.);
#572=SURFACE_SIDE_STYLE('',(#573,#570));
#573=SURFACE_STYLE_FILL_AREA(#574);
#574=FILL_AREA_STYLE('',(#575));
#575=FILL_AREA_STYLE_COLOUR('',#576);
#576=COLOUR_RGB('',0.749019607843137,0.749019607843137,0.749019607843137);
ENDSEC;
END-ISO-10303-21;
