ISO-10303-21;
HEADER;
/* Generated by software containing ST-Developer
 * from STEP Tools, Inc. (www.steptools.com) 
 */

FILE_DESCRIPTION(
/* description */ (''),
/* implementation_level */ '2;1');

FILE_NAME(
/* name */ 'Dati-7000_G$12$00.stp',
/* time_stamp */ '2025-09-02T15:55:51+02:00',
/* author */ ('olafg'),
/* organization */ (''),
/* preprocessor_version */ 'ST-DEVELOPER v20',
/* originating_system */ 'Autodesk Inventor 2024',
/* authorisation */ '');

FILE_SCHEMA (('AUTOMOTIVE_DESIGN { 1 0 10303 214 3 1 1 }'));
ENDSEC;

DATA;
#10=MECHANICAL_DESIGN_GEOMETRIC_PRESENTATION_REPRESENTATION('',(#13),#585);
#11=SHAPE_REPRESENTATION_RELATIONSHIP('SRR','None',#592,#12);
#12=ADVANCED_BREP_SHAPE_REPRESENTATION('',(#14),#584);
#13=STYLED_ITEM('',(#601),#14);
#14=MANIFOLD_SOLID_BREP('Volumenk\X\F6rper1',#334);
#15=FACE_BOUND('',#74,.T.);
#16=FACE_BOUND('',#78,.T.);
#17=TOROIDAL_SURFACE('',#380,1.55,0.1);
#18=CYLINDRICAL_SURFACE('',#377,1.5);
#19=CYLINDRICAL_SURFACE('',#387,3.2);
#20=CIRCLE('',#366,0.0963883310754382);
#21=CIRCLE('',#367,0.175);
#22=CIRCLE('',#370,0.0963883310754382);
#23=CIRCLE('',#371,0.175);
#24=CIRCLE('',#374,1.2);
#25=CIRCLE('',#376,1.5);
#26=CIRCLE('',#378,1.5);
#27=CIRCLE('',#379,1.5);
#28=CIRCLE('',#381,0.1);
#29=CIRCLE('',#382,1.55);
#30=CIRCLE('',#384,3.02679491924311);
#31=CIRCLE('',#386,3.2);
#32=CIRCLE('',#388,3.2);
#33=CONICAL_SURFACE('',#365,0.175,0.0523598775598299);
#34=CONICAL_SURFACE('',#369,0.175,0.0523598775598299);
#35=CONICAL_SURFACE('',#375,1.35,0.785398163397448);
#36=CONICAL_SURFACE('',#385,3.11339745962156,0.523598775598298);
#37=FACE_OUTER_BOUND('',#57,.T.);
#38=FACE_OUTER_BOUND('',#58,.T.);
#39=FACE_OUTER_BOUND('',#59,.T.);
#40=FACE_OUTER_BOUND('',#60,.T.);
#41=FACE_OUTER_BOUND('',#61,.T.);
#42=FACE_OUTER_BOUND('',#62,.T.);
#43=FACE_OUTER_BOUND('',#63,.T.);
#44=FACE_OUTER_BOUND('',#64,.T.);
#45=FACE_OUTER_BOUND('',#65,.T.);
#46=FACE_OUTER_BOUND('',#66,.T.);
#47=FACE_OUTER_BOUND('',#67,.T.);
#48=FACE_OUTER_BOUND('',#68,.T.);
#49=FACE_OUTER_BOUND('',#69,.T.);
#50=FACE_OUTER_BOUND('',#70,.T.);
#51=FACE_OUTER_BOUND('',#71,.T.);
#52=FACE_OUTER_BOUND('',#72,.T.);
#53=FACE_OUTER_BOUND('',#73,.T.);
#54=FACE_OUTER_BOUND('',#75,.T.);
#55=FACE_OUTER_BOUND('',#76,.T.);
#56=FACE_OUTER_BOUND('',#77,.T.);
#57=EDGE_LOOP('',(#213,#214,#215,#216));
#58=EDGE_LOOP('',(#217,#218,#219,#220));
#59=EDGE_LOOP('',(#221,#222,#223,#224,#225,#226));
#60=EDGE_LOOP('',(#227,#228,#229));
#61=EDGE_LOOP('',(#230,#231,#232,#233));
#62=EDGE_LOOP('',(#234,#235,#236,#237,#238));
#63=EDGE_LOOP('',(#239,#240,#241,#242));
#64=EDGE_LOOP('',(#243,#244,#245,#246,#247));
#65=EDGE_LOOP('',(#248,#249,#250,#251));
#66=EDGE_LOOP('',(#252,#253,#254,#255));
#67=EDGE_LOOP('',(#256,#257,#258,#259));
#68=EDGE_LOOP('',(#260,#261,#262,#263,#264,#265));
#69=EDGE_LOOP('',(#266));
#70=EDGE_LOOP('',(#267,#268,#269,#270));
#71=EDGE_LOOP('',(#271,#272,#273,#274,#275));
#72=EDGE_LOOP('',(#276,#277,#278,#279,#280));
#73=EDGE_LOOP('',(#281));
#74=EDGE_LOOP('',(#282));
#75=EDGE_LOOP('',(#283,#284,#285,#286));
#76=EDGE_LOOP('',(#287,#288,#289,#290));
#77=EDGE_LOOP('',(#291));
#78=EDGE_LOOP('',(#292,#293,#294,#295,#296,#297,#298,#299,#300));
#79=LINE('',#493,#110);
#80=LINE('',#495,#111);
#81=LINE('',#497,#112);
#82=LINE('',#498,#113);
#83=LINE('',#501,#114);
#84=LINE('',#503,#115);
#85=LINE('',#504,#116);
#86=LINE('',#507,#117);
#87=LINE('',#509,#118);
#88=LINE('',#510,#119);
#89=LINE('',#511,#120);
#90=LINE('',#515,#121);
#91=LINE('',#517,#122);
#92=LINE('',#518,#123);
#93=LINE('',#522,#124);
#94=LINE('',#524,#125);
#95=LINE('',#525,#126);
#96=LINE('',#526,#127);
#97=LINE('',#529,#128);
#98=LINE('',#530,#129);
#99=LINE('',#533,#130);
#100=LINE('',#535,#131);
#101=LINE('',#536,#132);
#102=LINE('',#542,#133);
#103=LINE('',#545,#134);
#104=LINE('',#547,#135);
#105=LINE('',#548,#136);
#106=LINE('',#559,#137);
#107=LINE('',#565,#138);
#108=LINE('',#575,#139);
#109=LINE('',#580,#140);
#110=VECTOR('',#394,10.);
#111=VECTOR('',#395,10.);
#112=VECTOR('',#396,10.);
#113=VECTOR('',#397,10.);
#114=VECTOR('',#400,10.);
#115=VECTOR('',#401,10.);
#116=VECTOR('',#402,10.);
#117=VECTOR('',#405,10.);
#118=VECTOR('',#406,10.);
#119=VECTOR('',#407,10.);
#120=VECTOR('',#408,10.);
#121=VECTOR('',#413,10.);
#122=VECTOR('',#414,10.);
#123=VECTOR('',#415,10.);
#124=VECTOR('',#418,10.);
#125=VECTOR('',#419,10.);
#126=VECTOR('',#420,10.);
#127=VECTOR('',#421,10.);
#128=VECTOR('',#424,10.);
#129=VECTOR('',#425,10.);
#130=VECTOR('',#428,10.);
#131=VECTOR('',#429,10.);
#132=VECTOR('',#430,10.);
#133=VECTOR('',#437,10.);
#134=VECTOR('',#440,10.);
#135=VECTOR('',#441,10.);
#136=VECTOR('',#442,10.);
#137=VECTOR('',#459,1.35);
#138=VECTOR('',#466,1.5);
#139=VECTOR('',#479,3.11339745962156);
#140=VECTOR('',#486,3.2);
#141=VERTEX_POINT('',#491);
#142=VERTEX_POINT('',#492);
#143=VERTEX_POINT('',#494);
#144=VERTEX_POINT('',#496);
#145=VERTEX_POINT('',#500);
#146=VERTEX_POINT('',#502);
#147=VERTEX_POINT('',#506);
#148=VERTEX_POINT('',#508);
#149=VERTEX_POINT('',#514);
#150=VERTEX_POINT('',#516);
#151=VERTEX_POINT('',#520);
#152=VERTEX_POINT('',#521);
#153=VERTEX_POINT('',#523);
#154=VERTEX_POINT('',#528);
#155=VERTEX_POINT('',#532);
#156=VERTEX_POINT('',#534);
#157=VERTEX_POINT('',#538);
#158=VERTEX_POINT('',#540);
#159=VERTEX_POINT('',#544);
#160=VERTEX_POINT('',#546);
#161=VERTEX_POINT('',#554);
#162=VERTEX_POINT('',#557);
#163=VERTEX_POINT('',#561);
#164=VERTEX_POINT('',#562);
#165=VERTEX_POINT('',#567);
#166=VERTEX_POINT('',#571);
#167=VERTEX_POINT('',#574);
#168=VERTEX_POINT('',#578);
#169=EDGE_CURVE('',#141,#142,#79,.T.);
#170=EDGE_CURVE('',#141,#143,#80,.T.);
#171=EDGE_CURVE('',#144,#143,#81,.T.);
#172=EDGE_CURVE('',#142,#144,#82,.T.);
#173=EDGE_CURVE('',#142,#145,#83,.T.);
#174=EDGE_CURVE('',#146,#144,#84,.T.);
#175=EDGE_CURVE('',#145,#146,#85,.T.);
#176=EDGE_CURVE('',#147,#141,#86,.T.);
#177=EDGE_CURVE('',#147,#148,#87,.T.);
#178=EDGE_CURVE('',#145,#148,#88,.T.);
#179=EDGE_CURVE('',#143,#146,#89,.T.);
#180=EDGE_CURVE('',#149,#148,#90,.T.);
#181=EDGE_CURVE('',#147,#150,#91,.T.);
#182=EDGE_CURVE('',#150,#149,#92,.T.);
#183=EDGE_CURVE('',#151,#152,#93,.T.);
#184=EDGE_CURVE('',#153,#151,#94,.T.);
#185=EDGE_CURVE('',#148,#153,#95,.T.);
#186=EDGE_CURVE('',#149,#152,#96,.T.);
#187=EDGE_CURVE('',#152,#154,#97,.T.);
#188=EDGE_CURVE('',#150,#154,#98,.T.);
#189=EDGE_CURVE('',#154,#155,#99,.T.);
#190=EDGE_CURVE('',#156,#147,#100,.T.);
#191=EDGE_CURVE('',#156,#155,#101,.T.);
#192=EDGE_CURVE('',#155,#157,#20,.T.);
#193=EDGE_CURVE('',#158,#156,#21,.T.);
#194=EDGE_CURVE('',#158,#157,#102,.T.);
#195=EDGE_CURVE('',#157,#159,#103,.T.);
#196=EDGE_CURVE('',#160,#158,#104,.T.);
#197=EDGE_CURVE('',#160,#159,#105,.T.);
#198=EDGE_CURVE('',#159,#151,#22,.T.);
#199=EDGE_CURVE('',#153,#160,#23,.T.);
#200=EDGE_CURVE('',#161,#161,#24,.T.);
#201=EDGE_CURVE('',#162,#162,#25,.T.);
#202=EDGE_CURVE('',#162,#161,#106,.T.);
#203=EDGE_CURVE('',#163,#164,#26,.T.);
#204=EDGE_CURVE('',#164,#163,#27,.T.);
#205=EDGE_CURVE('',#164,#162,#107,.T.);
#206=EDGE_CURVE('',#163,#165,#28,.T.);
#207=EDGE_CURVE('',#165,#165,#29,.T.);
#208=EDGE_CURVE('',#166,#166,#30,.T.);
#209=EDGE_CURVE('',#166,#167,#108,.T.);
#210=EDGE_CURVE('',#167,#167,#31,.T.);
#211=EDGE_CURVE('',#168,#168,#32,.T.);
#212=EDGE_CURVE('',#168,#167,#109,.T.);
#213=ORIENTED_EDGE('',*,*,#169,.F.);
#214=ORIENTED_EDGE('',*,*,#170,.T.);
#215=ORIENTED_EDGE('',*,*,#171,.F.);
#216=ORIENTED_EDGE('',*,*,#172,.F.);
#217=ORIENTED_EDGE('',*,*,#173,.F.);
#218=ORIENTED_EDGE('',*,*,#172,.T.);
#219=ORIENTED_EDGE('',*,*,#174,.F.);
#220=ORIENTED_EDGE('',*,*,#175,.F.);
#221=ORIENTED_EDGE('',*,*,#176,.F.);
#222=ORIENTED_EDGE('',*,*,#177,.T.);
#223=ORIENTED_EDGE('',*,*,#178,.F.);
#224=ORIENTED_EDGE('',*,*,#175,.T.);
#225=ORIENTED_EDGE('',*,*,#179,.F.);
#226=ORIENTED_EDGE('',*,*,#170,.F.);
#227=ORIENTED_EDGE('',*,*,#179,.T.);
#228=ORIENTED_EDGE('',*,*,#174,.T.);
#229=ORIENTED_EDGE('',*,*,#171,.T.);
#230=ORIENTED_EDGE('',*,*,#180,.T.);
#231=ORIENTED_EDGE('',*,*,#177,.F.);
#232=ORIENTED_EDGE('',*,*,#181,.T.);
#233=ORIENTED_EDGE('',*,*,#182,.T.);
#234=ORIENTED_EDGE('',*,*,#183,.F.);
#235=ORIENTED_EDGE('',*,*,#184,.F.);
#236=ORIENTED_EDGE('',*,*,#185,.F.);
#237=ORIENTED_EDGE('',*,*,#180,.F.);
#238=ORIENTED_EDGE('',*,*,#186,.T.);
#239=ORIENTED_EDGE('',*,*,#187,.F.);
#240=ORIENTED_EDGE('',*,*,#186,.F.);
#241=ORIENTED_EDGE('',*,*,#182,.F.);
#242=ORIENTED_EDGE('',*,*,#188,.T.);
#243=ORIENTED_EDGE('',*,*,#189,.F.);
#244=ORIENTED_EDGE('',*,*,#188,.F.);
#245=ORIENTED_EDGE('',*,*,#181,.F.);
#246=ORIENTED_EDGE('',*,*,#190,.F.);
#247=ORIENTED_EDGE('',*,*,#191,.T.);
#248=ORIENTED_EDGE('',*,*,#192,.F.);
#249=ORIENTED_EDGE('',*,*,#191,.F.);
#250=ORIENTED_EDGE('',*,*,#193,.F.);
#251=ORIENTED_EDGE('',*,*,#194,.T.);
#252=ORIENTED_EDGE('',*,*,#195,.F.);
#253=ORIENTED_EDGE('',*,*,#194,.F.);
#254=ORIENTED_EDGE('',*,*,#196,.F.);
#255=ORIENTED_EDGE('',*,*,#197,.T.);
#256=ORIENTED_EDGE('',*,*,#198,.F.);
#257=ORIENTED_EDGE('',*,*,#197,.F.);
#258=ORIENTED_EDGE('',*,*,#199,.F.);
#259=ORIENTED_EDGE('',*,*,#184,.T.);
#260=ORIENTED_EDGE('',*,*,#183,.T.);
#261=ORIENTED_EDGE('',*,*,#187,.T.);
#262=ORIENTED_EDGE('',*,*,#189,.T.);
#263=ORIENTED_EDGE('',*,*,#192,.T.);
#264=ORIENTED_EDGE('',*,*,#195,.T.);
#265=ORIENTED_EDGE('',*,*,#198,.T.);
#266=ORIENTED_EDGE('',*,*,#200,.F.);
#267=ORIENTED_EDGE('',*,*,#201,.F.);
#268=ORIENTED_EDGE('',*,*,#202,.T.);
#269=ORIENTED_EDGE('',*,*,#200,.T.);
#270=ORIENTED_EDGE('',*,*,#202,.F.);
#271=ORIENTED_EDGE('',*,*,#203,.F.);
#272=ORIENTED_EDGE('',*,*,#204,.F.);
#273=ORIENTED_EDGE('',*,*,#205,.T.);
#274=ORIENTED_EDGE('',*,*,#201,.T.);
#275=ORIENTED_EDGE('',*,*,#205,.F.);
#276=ORIENTED_EDGE('',*,*,#203,.T.);
#277=ORIENTED_EDGE('',*,*,#204,.T.);
#278=ORIENTED_EDGE('',*,*,#206,.T.);
#279=ORIENTED_EDGE('',*,*,#207,.T.);
#280=ORIENTED_EDGE('',*,*,#206,.F.);
#281=ORIENTED_EDGE('',*,*,#208,.F.);
#282=ORIENTED_EDGE('',*,*,#207,.F.);
#283=ORIENTED_EDGE('',*,*,#208,.T.);
#284=ORIENTED_EDGE('',*,*,#209,.T.);
#285=ORIENTED_EDGE('',*,*,#210,.T.);
#286=ORIENTED_EDGE('',*,*,#209,.F.);
#287=ORIENTED_EDGE('',*,*,#211,.T.);
#288=ORIENTED_EDGE('',*,*,#212,.T.);
#289=ORIENTED_EDGE('',*,*,#210,.F.);
#290=ORIENTED_EDGE('',*,*,#212,.F.);
#291=ORIENTED_EDGE('',*,*,#211,.F.);
#292=ORIENTED_EDGE('',*,*,#178,.T.);
#293=ORIENTED_EDGE('',*,*,#185,.T.);
#294=ORIENTED_EDGE('',*,*,#199,.T.);
#295=ORIENTED_EDGE('',*,*,#196,.T.);
#296=ORIENTED_EDGE('',*,*,#193,.T.);
#297=ORIENTED_EDGE('',*,*,#190,.T.);
#298=ORIENTED_EDGE('',*,*,#176,.T.);
#299=ORIENTED_EDGE('',*,*,#169,.T.);
#300=ORIENTED_EDGE('',*,*,#173,.T.);
#301=PLANE('',#357);
#302=PLANE('',#358);
#303=PLANE('',#359);
#304=PLANE('',#360);
#305=PLANE('',#361);
#306=PLANE('',#362);
#307=PLANE('',#363);
#308=PLANE('',#364);
#309=PLANE('',#368);
#310=PLANE('',#372);
#311=PLANE('',#373);
#312=PLANE('',#383);
#313=PLANE('',#389);
#314=ADVANCED_FACE('',(#37),#301,.T.);
#315=ADVANCED_FACE('',(#38),#302,.T.);
#316=ADVANCED_FACE('',(#39),#303,.T.);
#317=ADVANCED_FACE('',(#40),#304,.T.);
#318=ADVANCED_FACE('',(#41),#305,.F.);
#319=ADVANCED_FACE('',(#42),#306,.F.);
#320=ADVANCED_FACE('',(#43),#307,.F.);
#321=ADVANCED_FACE('',(#44),#308,.F.);
#322=ADVANCED_FACE('',(#45),#33,.F.);
#323=ADVANCED_FACE('',(#46),#309,.F.);
#324=ADVANCED_FACE('',(#47),#34,.F.);
#325=ADVANCED_FACE('',(#48),#310,.T.);
#326=ADVANCED_FACE('',(#49),#311,.T.);
#327=ADVANCED_FACE('',(#50),#35,.T.);
#328=ADVANCED_FACE('',(#51),#18,.T.);
#329=ADVANCED_FACE('',(#52),#17,.F.);
#330=ADVANCED_FACE('',(#53,#15),#312,.T.);
#331=ADVANCED_FACE('',(#54),#36,.T.);
#332=ADVANCED_FACE('',(#55),#19,.T.);
#333=ADVANCED_FACE('',(#56,#16),#313,.F.);
#334=CLOSED_SHELL('',(#314,#315,#316,#317,#318,#319,#320,#321,#322,#323,
#324,#325,#326,#327,#328,#329,#330,#331,#332,#333));
#335=DERIVED_UNIT_ELEMENT(#338,1.);
#336=DERIVED_UNIT_ELEMENT(#587,-3.);
#337=DIMENSIONAL_EXPONENTS(0.,1.,0.,0.,0.,0.,0.);
#338=(
CONVERSION_BASED_UNIT('gram',#340)
MASS_UNIT()
NAMED_UNIT(#337)
);
#339=(
MASS_UNIT()
NAMED_UNIT(*)
SI_UNIT(.KILO.,.GRAM.)
);
#340=MASS_MEASURE_WITH_UNIT(MASS_MEASURE(0.001),#339);
#341=DERIVED_UNIT((#335,#336));
#342=MEASURE_REPRESENTATION_ITEM('density measure',
POSITIVE_RATIO_MEASURE(1.),#341);
#343=PROPERTY_DEFINITION_REPRESENTATION(#348,#345);
#344=PROPERTY_DEFINITION_REPRESENTATION(#349,#346);
#345=REPRESENTATION('material name',(#347),#584);
#346=REPRESENTATION('density',(#342),#584);
#347=DESCRIPTIVE_REPRESENTATION_ITEM('Allgemein','Allgemein');
#348=PROPERTY_DEFINITION('material property','material name',#594);
#349=PROPERTY_DEFINITION('material property','density of part',#594);
#350=DATE_TIME_ROLE('creation_date');
#351=APPLIED_DATE_AND_TIME_ASSIGNMENT(#352,#350,(#594));
#352=DATE_AND_TIME(#353,#354);
#353=CALENDAR_DATE(2015,24,4);
#354=LOCAL_TIME(0,0,0.,#355);
#355=COORDINATED_UNIVERSAL_TIME_OFFSET(0,0,.BEHIND.);
#356=AXIS2_PLACEMENT_3D('',#489,#390,#391);
#357=AXIS2_PLACEMENT_3D('',#490,#392,#393);
#358=AXIS2_PLACEMENT_3D('',#499,#398,#399);
#359=AXIS2_PLACEMENT_3D('',#505,#403,#404);
#360=AXIS2_PLACEMENT_3D('',#512,#409,#410);
#361=AXIS2_PLACEMENT_3D('',#513,#411,#412);
#362=AXIS2_PLACEMENT_3D('',#519,#416,#417);
#363=AXIS2_PLACEMENT_3D('',#527,#422,#423);
#364=AXIS2_PLACEMENT_3D('',#531,#426,#427);
#365=AXIS2_PLACEMENT_3D('',#537,#431,#432);
#366=AXIS2_PLACEMENT_3D('',#539,#433,#434);
#367=AXIS2_PLACEMENT_3D('',#541,#435,#436);
#368=AXIS2_PLACEMENT_3D('',#543,#438,#439);
#369=AXIS2_PLACEMENT_3D('',#549,#443,#444);
#370=AXIS2_PLACEMENT_3D('',#550,#445,#446);
#371=AXIS2_PLACEMENT_3D('',#551,#447,#448);
#372=AXIS2_PLACEMENT_3D('',#552,#449,#450);
#373=AXIS2_PLACEMENT_3D('',#553,#451,#452);
#374=AXIS2_PLACEMENT_3D('',#555,#453,#454);
#375=AXIS2_PLACEMENT_3D('',#556,#455,#456);
#376=AXIS2_PLACEMENT_3D('',#558,#457,#458);
#377=AXIS2_PLACEMENT_3D('',#560,#460,#461);
#378=AXIS2_PLACEMENT_3D('',#563,#462,#463);
#379=AXIS2_PLACEMENT_3D('',#564,#464,#465);
#380=AXIS2_PLACEMENT_3D('',#566,#467,#468);
#381=AXIS2_PLACEMENT_3D('',#568,#469,#470);
#382=AXIS2_PLACEMENT_3D('',#569,#471,#472);
#383=AXIS2_PLACEMENT_3D('',#570,#473,#474);
#384=AXIS2_PLACEMENT_3D('',#572,#475,#476);
#385=AXIS2_PLACEMENT_3D('',#573,#477,#478);
#386=AXIS2_PLACEMENT_3D('',#576,#480,#481);
#387=AXIS2_PLACEMENT_3D('',#577,#482,#483);
#388=AXIS2_PLACEMENT_3D('',#579,#484,#485);
#389=AXIS2_PLACEMENT_3D('',#581,#487,#488);
#390=DIRECTION('axis',(0.,0.,1.));
#391=DIRECTION('refdir',(1.,0.,0.));
#392=DIRECTION('center_axis',(0.88286510560407,-0.469626665881223,0.));
#393=DIRECTION('ref_axis',(0.469626665881223,0.88286510560407,0.));
#394=DIRECTION('',(-0.469626665881223,-0.88286510560407,0.));
#395=DIRECTION('',(0.,0.,1.));
#396=DIRECTION('',(0.469626665881223,0.88286510560407,0.));
#397=DIRECTION('',(0.,0.,1.));
#398=DIRECTION('center_axis',(-0.866025403784438,-0.500000000000001,0.));
#399=DIRECTION('ref_axis',(0.500000000000001,-0.866025403784438,0.));
#400=DIRECTION('',(-0.500000000000001,0.866025403784438,0.));
#401=DIRECTION('',(0.500000000000001,-0.866025403784438,0.));
#402=DIRECTION('',(0.,0.,1.));
#403=DIRECTION('center_axis',(-8.9953316952997E-17,1.,0.));
#404=DIRECTION('ref_axis',(-1.,-8.9953316952997E-17,0.));
#405=DIRECTION('',(1.,8.9953316952997E-17,0.));
#406=DIRECTION('',(-1.,-8.9953316952997E-17,0.));
#407=DIRECTION('',(1.,8.9953316952997E-17,0.));
#408=DIRECTION('',(-1.,-8.9953316952997E-17,0.));
#409=DIRECTION('center_axis',(0.,0.,1.));
#410=DIRECTION('ref_axis',(1.,0.,0.));
#411=DIRECTION('center_axis',(0.,0.,1.));
#412=DIRECTION('ref_axis',(1.,0.,0.));
#413=DIRECTION('',(-4.17377076926751E-17,1.,0.));
#414=DIRECTION('',(2.08688538463375E-17,-1.,0.));
#415=DIRECTION('',(-1.,0.,0.));
#416=DIRECTION('center_axis',(-0.998629534754574,-4.16805076148585E-17,
-0.0523359562429438));
#417=DIRECTION('ref_axis',(-4.17377076926751E-17,1.,0.));
#418=DIRECTION('',(4.17377076926751E-17,-1.,0.));
#419=DIRECTION('',(0.0523359562429438,0.,-0.998629534754574));
#420=DIRECTION('',(-4.17377076926751E-17,1.,0.));
#421=DIRECTION('',(0.0522644276887139,0.0522644276887139,-0.997264688634237));
#422=DIRECTION('center_axis',(0.,-0.998629534754574,-0.0523359562429438));
#423=DIRECTION('ref_axis',(-1.,0.,0.));
#424=DIRECTION('',(1.,0.,0.));
#425=DIRECTION('',(-0.0522644276887139,0.0522644276887139,-0.997264688634237));
#426=DIRECTION('center_axis',(0.998629534754574,2.08402538074292E-17,-0.0523359562429438));
#427=DIRECTION('ref_axis',(2.08688538463375E-17,-1.,0.));
#428=DIRECTION('',(-2.08688538463375E-17,1.,0.));
#429=DIRECTION('',(2.08688538463375E-17,-1.,0.));
#430=DIRECTION('',(-0.0523359562429438,0.,-0.998629534754574));
#431=DIRECTION('center_axis',(0.,0.,1.));
#432=DIRECTION('ref_axis',(1.,0.,0.));
#433=DIRECTION('center_axis',(0.,0.,1.));
#434=DIRECTION('ref_axis',(1.,0.,0.));
#435=DIRECTION('center_axis',(0.,0.,-1.));
#436=DIRECTION('ref_axis',(1.,0.,0.));
#437=DIRECTION('',(-9.2391791879603E-17,-0.0523359562429439,-0.998629534754574));
#438=DIRECTION('center_axis',(1.58385928936462E-15,0.998629534754574,-0.0523359562429439));
#439=DIRECTION('ref_axis',(1.,-1.58603289232165E-15,0.));
#440=DIRECTION('',(-1.,1.58603289232165E-15,0.));
#441=DIRECTION('',(1.,-1.58603289232165E-15,0.));
#442=DIRECTION('',(0.,-0.0523359562429441,-0.998629534754574));
#443=DIRECTION('center_axis',(0.,0.,1.));
#444=DIRECTION('ref_axis',(0.,1.,0.));
#445=DIRECTION('center_axis',(0.,0.,1.));
#446=DIRECTION('ref_axis',(0.,1.,0.));
#447=DIRECTION('center_axis',(0.,0.,-1.));
#448=DIRECTION('ref_axis',(0.,1.,0.));
#449=DIRECTION('center_axis',(0.,0.,1.));
#450=DIRECTION('ref_axis',(1.,0.,0.));
#451=DIRECTION('center_axis',(0.,1.83697019872103E-16,-1.));
#452=DIRECTION('ref_axis',(-1.,0.,0.));
#453=DIRECTION('center_axis',(0.,-1.83697019872103E-16,1.));
#454=DIRECTION('ref_axis',(0.,-1.,-1.83697019872103E-16));
#455=DIRECTION('center_axis',(0.,-1.83697019872103E-16,1.));
#456=DIRECTION('ref_axis',(0.,-1.,-1.83697019872103E-16));
#457=DIRECTION('center_axis',(0.,-1.83697019872103E-16,1.));
#458=DIRECTION('ref_axis',(0.,-1.,-1.83697019872103E-16));
#459=DIRECTION('',(8.65956056235493E-17,-0.707106781186547,-0.707106781186548));
#460=DIRECTION('center_axis',(0.,-1.83697019872103E-16,1.));
#461=DIRECTION('ref_axis',(0.,-1.,-1.83697019872103E-16));
#462=DIRECTION('center_axis',(0.,-1.83697019872103E-16,1.));
#463=DIRECTION('ref_axis',(0.,-1.,-1.83697019872103E-16));
#464=DIRECTION('center_axis',(0.,-1.83697019872103E-16,1.));
#465=DIRECTION('ref_axis',(0.,-1.,-1.83697019872103E-16));
#466=DIRECTION('',(0.,1.83697019872103E-16,-1.));
#467=DIRECTION('center_axis',(0.,-1.83697019872103E-16,1.));
#468=DIRECTION('ref_axis',(1.,0.,0.));
#469=DIRECTION('center_axis',(1.22464679914735E-16,-1.,-1.83697019872103E-16));
#470=DIRECTION('ref_axis',(-1.,-1.22464679914735E-16,0.));
#471=DIRECTION('center_axis',(0.,9.18485099360515E-17,-1.));
#472=DIRECTION('ref_axis',(1.,0.,0.));
#473=DIRECTION('center_axis',(0.,0.,-1.));
#474=DIRECTION('ref_axis',(-1.,0.,0.));
#475=DIRECTION('center_axis',(0.,0.,1.));
#476=DIRECTION('ref_axis',(-1.,0.,0.));
#477=DIRECTION('center_axis',(0.,0.,1.));
#478=DIRECTION('ref_axis',(-1.,0.,0.));
#479=DIRECTION('',(0.499999999999999,-6.12323399573676E-17,0.866025403784439));
#480=DIRECTION('center_axis',(0.,0.,-1.));
#481=DIRECTION('ref_axis',(-1.,0.,0.));
#482=DIRECTION('center_axis',(0.,0.,1.));
#483=DIRECTION('ref_axis',(-1.,0.,0.));
#484=DIRECTION('center_axis',(0.,0.,-1.));
#485=DIRECTION('ref_axis',(-1.,0.,0.));
#486=DIRECTION('',(0.,0.,-1.));
#487=DIRECTION('center_axis',(0.,0.,-1.));
#488=DIRECTION('ref_axis',(-1.,0.,0.));
#489=CARTESIAN_POINT('',(0.,0.,0.));
#490=CARTESIAN_POINT('Origin',(0.0315815751723353,-2.3121730056454,4.));
#491=CARTESIAN_POINT('',(0.771388331075435,-0.921388331075438,4.));
#492=CARTESIAN_POINT('',(0.0315815751723354,-2.3121730056454,4.));
#493=CARTESIAN_POINT('',(0.507432042398207,-1.41760759119901,4.));
#494=CARTESIAN_POINT('',(0.771388331075435,-0.921388331075438,4.5));
#495=CARTESIAN_POINT('',(0.771388331075435,-0.921388331075438,4.));
#496=CARTESIAN_POINT('',(0.0315815751723354,-2.3121730056454,4.5));
#497=CARTESIAN_POINT('',(0.0315815751723354,-2.3121730056454,4.5));
#498=CARTESIAN_POINT('',(0.0315815751723354,-2.3121730056454,4.));
#499=CARTESIAN_POINT('Origin',(-0.771388331075441,-0.921388331075439,4.));
#500=CARTESIAN_POINT('',(-0.771388331075441,-0.921388331075439,4.));
#501=CARTESIAN_POINT('',(-0.87445121505648,-0.742878179645703,4.));
#502=CARTESIAN_POINT('',(-0.771388331075441,-0.921388331075439,4.5));
#503=CARTESIAN_POINT('',(-0.771388331075441,-0.921388331075439,4.5));
#504=CARTESIAN_POINT('',(-0.771388331075441,-0.921388331075439,4.));
#505=CARTESIAN_POINT('Origin',(0.771388331075435,-0.921388331075438,4.));
#506=CARTESIAN_POINT('',(0.349999999999997,-0.921388331075438,4.));
#507=CARTESIAN_POINT('',(0.385694165537718,-0.921388331075438,4.));
#508=CARTESIAN_POINT('',(-0.350000000000003,-0.921388331075439,4.));
#509=CARTESIAN_POINT('',(0.771388331075435,-0.921388331075438,4.));
#510=CARTESIAN_POINT('',(0.385694165537718,-0.921388331075438,4.));
#511=CARTESIAN_POINT('',(0.771388331075435,-0.921388331075438,4.5));
#512=CARTESIAN_POINT('Origin',(-2.91433543964104E-15,-1.61678066836042,
4.5));
#513=CARTESIAN_POINT('Origin',(-2.91433543964104E-15,-1.61678066836042,
4.));
#514=CARTESIAN_POINT('',(-0.350000000000003,-1.,4.));
#515=CARTESIAN_POINT('',(-0.350000000000003,1.1625,4.));
#516=CARTESIAN_POINT('',(0.349999999999997,-1.,4.));
#517=CARTESIAN_POINT('',(0.349999999999997,-0.5,4.));
#518=CARTESIAN_POINT('',(-0.175000000000001,-1.,4.));
#519=CARTESIAN_POINT('Origin',(-0.350000000000003,2.325,4.));
#520=CARTESIAN_POINT('',(-0.271388331075441,2.325,2.5));
#521=CARTESIAN_POINT('',(-0.271388331075441,-0.921388331075438,2.5));
#522=CARTESIAN_POINT('',(-0.271388331075441,2.325,2.5));
#523=CARTESIAN_POINT('',(-0.350000000000003,2.325,4.));
#524=CARTESIAN_POINT('',(-0.350000000000003,2.325,4.));
#525=CARTESIAN_POINT('',(-0.350000000000003,1.1625,4.));
#526=CARTESIAN_POINT('',(-0.345458764207295,-0.995458764207293,3.91334805910814));
#527=CARTESIAN_POINT('Origin',(-0.350000000000003,-1.,4.));
#528=CARTESIAN_POINT('',(0.271388331075435,-0.921388331075438,2.5));
#529=CARTESIAN_POINT('',(-0.350000000000003,-0.921388331075438,2.5));
#530=CARTESIAN_POINT('',(0.349043950359427,-0.99904395035943,3.98175748612803));
#531=CARTESIAN_POINT('Origin',(0.349999999999997,-1.,4.));
#532=CARTESIAN_POINT('',(0.271388331075435,2.325,2.5));
#533=CARTESIAN_POINT('',(0.271388331075435,-1.,2.5));
#534=CARTESIAN_POINT('',(0.349999999999997,2.325,4.));
#535=CARTESIAN_POINT('',(0.349999999999997,-0.5,4.));
#536=CARTESIAN_POINT('',(0.349999999999997,2.325,4.));
#537=CARTESIAN_POINT('Origin',(0.174999999999997,2.325,4.));
#538=CARTESIAN_POINT('',(0.174999999999997,2.42138833107544,2.5));
#539=CARTESIAN_POINT('Origin',(0.174999999999997,2.325,2.5));
#540=CARTESIAN_POINT('',(0.174999999999997,2.5,4.));
#541=CARTESIAN_POINT('Origin',(0.174999999999997,2.325,4.));
#542=CARTESIAN_POINT('',(0.174999999999997,2.5,4.));
#543=CARTESIAN_POINT('Origin',(0.174999999999997,2.5,4.));
#544=CARTESIAN_POINT('',(-0.175000000000003,2.42138833107544,2.5));
#545=CARTESIAN_POINT('',(0.174999999999997,2.42138833107544,2.5));
#546=CARTESIAN_POINT('',(-0.175000000000003,2.5,4.));
#547=CARTESIAN_POINT('',(0.0875000000000005,2.5,4.));
#548=CARTESIAN_POINT('',(-0.175000000000003,2.5,4.));
#549=CARTESIAN_POINT('Origin',(-0.175000000000003,2.325,4.));
#550=CARTESIAN_POINT('Origin',(-0.175000000000003,2.325,2.5));
#551=CARTESIAN_POINT('Origin',(-0.175000000000003,2.325,4.));
#552=CARTESIAN_POINT('Origin',(-3.05311331771918E-15,0.75,2.5));
#553=CARTESIAN_POINT('Origin',(0.,-0.599999999999998,-13.));
#554=CARTESIAN_POINT('',(-1.46957615897683E-16,1.2,-13.));
#555=CARTESIAN_POINT('Origin',(0.,2.38806125833734E-15,-13.));
#556=CARTESIAN_POINT('Origin',(0.,2.36050670535652E-15,-12.85));
#557=CARTESIAN_POINT('',(-1.83697019872103E-16,1.5,-12.7));
#558=CARTESIAN_POINT('Origin',(0.,2.33295215237571E-15,-12.7));
#559=CARTESIAN_POINT('',(-1.65327317884893E-16,1.35,-12.85));
#560=CARTESIAN_POINT('Origin',(0.,1.1836152414719E-15,-6.44330127018922));
#561=CARTESIAN_POINT('',(-1.5,-1.67788391291229E-16,-0.186602540378444));
#562=CARTESIAN_POINT('',(-1.83697019872103E-16,1.5,-0.186602540378443));
#563=CARTESIAN_POINT('Origin',(0.,3.42783305680839E-17,-0.186602540378444));
#564=CARTESIAN_POINT('Origin',(0.,3.42783305680839E-17,-0.186602540378444));
#565=CARTESIAN_POINT('',(-1.83697019872103E-16,1.5,-6.44330127018922));
#566=CARTESIAN_POINT('Origin',(0.,0.,-0.0999999999999999));
#567=CARTESIAN_POINT('',(-1.55,-2.0818995585505E-16,-9.56096861446934E-33));
#568=CARTESIAN_POINT('Origin',(-1.55,-1.8982025386784E-16,-0.0999999999999999));
#569=CARTESIAN_POINT('Origin',(0.,-9.18485099360513E-18,0.));
#570=CARTESIAN_POINT('Origin',(0.,0.,0.));
#571=CARTESIAN_POINT('',(3.02679491924311,3.70675470952655E-16,0.));
#572=CARTESIAN_POINT('Origin',(0.,0.,0.));
#573=CARTESIAN_POINT('Origin',(0.,0.,0.15));
#574=CARTESIAN_POINT('',(3.2,-3.91886975727153E-16,0.3));
#575=CARTESIAN_POINT('',(3.11339745962156,-3.81281223339904E-16,0.15));
#576=CARTESIAN_POINT('Origin',(0.,0.,0.3));
#577=CARTESIAN_POINT('Origin',(0.,0.,0.));
#578=CARTESIAN_POINT('',(3.2,3.91886975727153E-16,4.));
#579=CARTESIAN_POINT('Origin',(0.,0.,4.));
#580=CARTESIAN_POINT('',(3.2,3.91886975727153E-16,0.));
#581=CARTESIAN_POINT('Origin',(0.,0.,4.));
#582=UNCERTAINTY_MEASURE_WITH_UNIT(LENGTH_MEASURE(0.01),#586,
'DISTANCE_ACCURACY_VALUE',
'Maximum model space distance between geometric entities at asserted c
onnectivities');
#583=UNCERTAINTY_MEASURE_WITH_UNIT(LENGTH_MEASURE(0.01),#586,
'DISTANCE_ACCURACY_VALUE',
'Maximum model space distance between geometric entities at asserted c
onnectivities');
#584=(
GEOMETRIC_REPRESENTATION_CONTEXT(3)
GLOBAL_UNCERTAINTY_ASSIGNED_CONTEXT((#582))
GLOBAL_UNIT_ASSIGNED_CONTEXT((#586,#588,#589))
REPRESENTATION_CONTEXT('','3D')
);
#585=(
GEOMETRIC_REPRESENTATION_CONTEXT(3)
GLOBAL_UNCERTAINTY_ASSIGNED_CONTEXT((#583))
GLOBAL_UNIT_ASSIGNED_CONTEXT((#586,#588,#589))
REPRESENTATION_CONTEXT('','3D')
);
#586=(
LENGTH_UNIT()
NAMED_UNIT(*)
SI_UNIT(.MILLI.,.METRE.)
);
#587=(
LENGTH_UNIT()
NAMED_UNIT(*)
SI_UNIT(.CENTI.,.METRE.)
);
#588=(
NAMED_UNIT(*)
PLANE_ANGLE_UNIT()
SI_UNIT($,.RADIAN.)
);
#589=(
NAMED_UNIT(*)
SI_UNIT($,.STERADIAN.)
SOLID_ANGLE_UNIT()
);
#590=SHAPE_DEFINITION_REPRESENTATION(#591,#592);
#591=PRODUCT_DEFINITION_SHAPE('',$,#594);
#592=SHAPE_REPRESENTATION('',(#356),#584);
#593=PRODUCT_DEFINITION_CONTEXT('part definition',#598,'design');
#594=PRODUCT_DEFINITION('2012-05-00 Stelleinsatz',
'2012-05-00 Stelleinsatz',#595,#593);
#595=PRODUCT_DEFINITION_FORMATION('',$,#600);
#596=PRODUCT_RELATED_PRODUCT_CATEGORY('2012-05-00 Stelleinsatz',
'2012-05-00 Stelleinsatz',(#600));
#597=APPLICATION_PROTOCOL_DEFINITION('international standard',
'automotive_design',2009,#598);
#598=APPLICATION_CONTEXT(
'Core Data for Automotive Mechanical Design Process');
#599=PRODUCT_CONTEXT('part definition',#598,'mechanical');
#600=PRODUCT('2012-05-00 Stelleinsatz','2012-05-00 Stelleinsatz',$,(#599));
#601=PRESENTATION_STYLE_ASSIGNMENT((#602));
#602=SURFACE_STYLE_USAGE(.BOTH.,#605);
#603=SURFACE_STYLE_RENDERING_WITH_PROPERTIES($,#609,(#604));
#604=SURFACE_STYLE_TRANSPARENT(0.);
#605=SURFACE_SIDE_STYLE('',(#606,#603));
#606=SURFACE_STYLE_FILL_AREA(#607);
#607=FILL_AREA_STYLE('',(#608));
#608=FILL_AREA_STYLE_COLOUR('',#609);
#609=COLOUR_RGB('',0.749019607843137,0.749019607843137,0.749019607843137);
ENDSEC;
END-ISO-10303-21;
