ISO-10303-21;
HEADER;
/* Generated by software containing ST-Developer
 * from STEP Tools, Inc. (www.steptools.com) 
 */

FILE_DESCRIPTION(
/* description */ (''),
/* implementation_level */ '2;1');

FILE_NAME(
/* name */ 'Dati-7000_G$8$00.stp',
/* time_stamp */ '2025-09-02T15:55:33+02:00',
/* author */ ('olafg'),
/* organization */ (''),
/* preprocessor_version */ 'ST-DEVELOPER v20',
/* originating_system */ 'Autodesk Inventor 2024',
/* authorisation */ '');

FILE_SCHEMA (('AUTOMOTIVE_DESIGN { 1 0 10303 214 3 1 1 }'));
ENDSEC;

DATA;
#10=MECHANICAL_DESIGN_GEOMETRIC_PRESENTATION_REPRESENTATION('',(#13),#552);
#11=SHAPE_REPRESENTATION_RELATIONSHIP('SRR','None',#559,#12);
#12=ADVANCED_BREP_SHAPE_REPRESENTATION('',(#14),#551);
#13=STYLED_ITEM('',(#568),#14);
#14=MANIFOLD_SOLID_BREP('Volumenk\X\F6rper1',#313);
#15=TOROIDAL_SURFACE('',#360,1.3,0.1);
#16=CYLINDRICAL_SURFACE('',#357,1.25);
#17=CYLINDRICAL_SURFACE('',#367,2.3);
#18=CONICAL_SURFACE('',#345,0.15,0.0523598775598299);
#19=CONICAL_SURFACE('',#350,0.149999999999999,0.0523598775598299);
#20=CONICAL_SURFACE('',#355,1.125,0.785398163397448);
#21=CONICAL_SURFACE('',#365,2.24226497308104,0.523598775598299);
#22=FACE_BOUND('',#61,.T.);
#23=FACE_BOUND('',#74,.T.);
#24=CIRCLE('',#341,2.3);
#25=CIRCLE('',#342,0.15);
#26=CIRCLE('',#343,0.149999999999999);
#27=CIRCLE('',#346,0.0713883310754378);
#28=CIRCLE('',#351,0.0713883310754375);
#29=CIRCLE('',#354,1.);
#30=CIRCLE('',#356,1.25);
#31=CIRCLE('',#358,1.25);
#32=CIRCLE('',#359,1.25);
#33=CIRCLE('',#361,0.1);
#34=CIRCLE('',#362,1.3);
#35=CIRCLE('',#364,2.18452994616207);
#36=CIRCLE('',#366,2.3);
#37=FACE_OUTER_BOUND('',#56,.T.);
#38=FACE_OUTER_BOUND('',#57,.T.);
#39=FACE_OUTER_BOUND('',#58,.T.);
#40=FACE_OUTER_BOUND('',#59,.T.);
#41=FACE_OUTER_BOUND('',#60,.T.);
#42=FACE_OUTER_BOUND('',#62,.T.);
#43=FACE_OUTER_BOUND('',#63,.T.);
#44=FACE_OUTER_BOUND('',#64,.T.);
#45=FACE_OUTER_BOUND('',#65,.T.);
#46=FACE_OUTER_BOUND('',#66,.T.);
#47=FACE_OUTER_BOUND('',#67,.T.);
#48=FACE_OUTER_BOUND('',#68,.T.);
#49=FACE_OUTER_BOUND('',#69,.T.);
#50=FACE_OUTER_BOUND('',#70,.T.);
#51=FACE_OUTER_BOUND('',#71,.T.);
#52=FACE_OUTER_BOUND('',#72,.T.);
#53=FACE_OUTER_BOUND('',#73,.T.);
#54=FACE_OUTER_BOUND('',#75,.T.);
#55=FACE_OUTER_BOUND('',#76,.T.);
#56=EDGE_LOOP('',(#200,#201,#202,#203));
#57=EDGE_LOOP('',(#204,#205,#206,#207,#208,#209));
#58=EDGE_LOOP('',(#210,#211,#212,#213));
#59=EDGE_LOOP('',(#214,#215,#216));
#60=EDGE_LOOP('',(#217));
#61=EDGE_LOOP('',(#218,#219,#220,#221,#222,#223,#224,#225,#226));
#62=EDGE_LOOP('',(#227,#228,#229,#230));
#63=EDGE_LOOP('',(#231,#232,#233,#234));
#64=EDGE_LOOP('',(#235,#236,#237,#238));
#65=EDGE_LOOP('',(#239,#240,#241,#242));
#66=EDGE_LOOP('',(#243,#244,#245,#246));
#67=EDGE_LOOP('',(#247,#248,#249,#250));
#68=EDGE_LOOP('',(#251,#252,#253,#254,#255,#256));
#69=EDGE_LOOP('',(#257));
#70=EDGE_LOOP('',(#258,#259,#260,#261));
#71=EDGE_LOOP('',(#262,#263,#264,#265,#266));
#72=EDGE_LOOP('',(#267,#268,#269,#270,#271));
#73=EDGE_LOOP('',(#272));
#74=EDGE_LOOP('',(#273));
#75=EDGE_LOOP('',(#274,#275,#276,#277));
#76=EDGE_LOOP('',(#278,#279,#280,#281));
#77=LINE('',#466,#105);
#78=LINE('',#468,#106);
#79=LINE('',#470,#107);
#80=LINE('',#471,#108);
#81=LINE('',#475,#109);
#82=LINE('',#477,#110);
#83=LINE('',#478,#111);
#84=LINE('',#480,#112);
#85=LINE('',#481,#113);
#86=LINE('',#483,#114);
#87=LINE('',#484,#115);
#88=LINE('',#490,#116);
#89=LINE('',#494,#117);
#90=LINE('',#497,#118);
#91=LINE('',#501,#119);
#92=LINE('',#502,#120);
#93=LINE('',#503,#121);
#94=LINE('',#507,#122);
#95=LINE('',#510,#123);
#96=LINE('',#511,#124);
#97=LINE('',#514,#125);
#98=LINE('',#515,#126);
#99=LINE('',#518,#127);
#100=LINE('',#519,#128);
#101=LINE('',#529,#129);
#102=LINE('',#535,#130);
#103=LINE('',#545,#131);
#104=LINE('',#548,#132);
#105=VECTOR('',#372,10.);
#106=VECTOR('',#373,10.);
#107=VECTOR('',#374,10.);
#108=VECTOR('',#375,10.);
#109=VECTOR('',#378,10.);
#110=VECTOR('',#379,10.);
#111=VECTOR('',#380,10.);
#112=VECTOR('',#381,10.);
#113=VECTOR('',#382,10.);
#114=VECTOR('',#385,10.);
#115=VECTOR('',#386,10.);
#116=VECTOR('',#393,10.);
#117=VECTOR('',#396,10.);
#118=VECTOR('',#399,10.);
#119=VECTOR('',#402,10.);
#120=VECTOR('',#403,10.);
#121=VECTOR('',#404,10.);
#122=VECTOR('',#409,10.);
#123=VECTOR('',#412,10.);
#124=VECTOR('',#413,10.);
#125=VECTOR('',#416,10.);
#126=VECTOR('',#417,10.);
#127=VECTOR('',#420,10.);
#128=VECTOR('',#421,10.);
#129=VECTOR('',#436,1.125);
#130=VECTOR('',#443,1.25);
#131=VECTOR('',#456,2.24226497308104);
#132=VECTOR('',#461,2.3);
#133=VERTEX_POINT('',#464);
#134=VERTEX_POINT('',#465);
#135=VERTEX_POINT('',#467);
#136=VERTEX_POINT('',#469);
#137=VERTEX_POINT('',#473);
#138=VERTEX_POINT('',#474);
#139=VERTEX_POINT('',#476);
#140=VERTEX_POINT('',#479);
#141=VERTEX_POINT('',#487);
#142=VERTEX_POINT('',#489);
#143=VERTEX_POINT('',#491);
#144=VERTEX_POINT('',#493);
#145=VERTEX_POINT('',#495);
#146=VERTEX_POINT('',#499);
#147=VERTEX_POINT('',#500);
#148=VERTEX_POINT('',#505);
#149=VERTEX_POINT('',#509);
#150=VERTEX_POINT('',#513);
#151=VERTEX_POINT('',#517);
#152=VERTEX_POINT('',#524);
#153=VERTEX_POINT('',#527);
#154=VERTEX_POINT('',#531);
#155=VERTEX_POINT('',#532);
#156=VERTEX_POINT('',#537);
#157=VERTEX_POINT('',#541);
#158=VERTEX_POINT('',#544);
#159=EDGE_CURVE('',#133,#134,#77,.T.);
#160=EDGE_CURVE('',#133,#135,#78,.T.);
#161=EDGE_CURVE('',#136,#135,#79,.T.);
#162=EDGE_CURVE('',#134,#136,#80,.T.);
#163=EDGE_CURVE('',#137,#138,#81,.T.);
#164=EDGE_CURVE('',#137,#139,#82,.T.);
#165=EDGE_CURVE('',#134,#139,#83,.T.);
#166=EDGE_CURVE('',#140,#136,#84,.T.);
#167=EDGE_CURVE('',#138,#140,#85,.T.);
#168=EDGE_CURVE('',#138,#133,#86,.T.);
#169=EDGE_CURVE('',#135,#140,#87,.T.);
#170=EDGE_CURVE('',#141,#141,#24,.T.);
#171=EDGE_CURVE('',#139,#142,#88,.T.);
#172=EDGE_CURVE('',#142,#143,#25,.T.);
#173=EDGE_CURVE('',#143,#144,#89,.T.);
#174=EDGE_CURVE('',#144,#145,#26,.T.);
#175=EDGE_CURVE('',#145,#137,#90,.T.);
#176=EDGE_CURVE('',#146,#147,#91,.T.);
#177=EDGE_CURVE('',#144,#146,#92,.T.);
#178=EDGE_CURVE('',#143,#147,#93,.T.);
#179=EDGE_CURVE('',#147,#148,#27,.T.);
#180=EDGE_CURVE('',#142,#148,#94,.T.);
#181=EDGE_CURVE('',#148,#149,#95,.T.);
#182=EDGE_CURVE('',#139,#149,#96,.T.);
#183=EDGE_CURVE('',#149,#150,#97,.T.);
#184=EDGE_CURVE('',#137,#150,#98,.T.);
#185=EDGE_CURVE('',#150,#151,#99,.T.);
#186=EDGE_CURVE('',#145,#151,#100,.T.);
#187=EDGE_CURVE('',#151,#146,#28,.T.);
#188=EDGE_CURVE('',#152,#152,#29,.T.);
#189=EDGE_CURVE('',#153,#153,#30,.T.);
#190=EDGE_CURVE('',#153,#152,#101,.T.);
#191=EDGE_CURVE('',#154,#155,#31,.T.);
#192=EDGE_CURVE('',#155,#154,#32,.T.);
#193=EDGE_CURVE('',#155,#153,#102,.T.);
#194=EDGE_CURVE('',#154,#156,#33,.T.);
#195=EDGE_CURVE('',#156,#156,#34,.T.);
#196=EDGE_CURVE('',#157,#157,#35,.T.);
#197=EDGE_CURVE('',#157,#158,#103,.T.);
#198=EDGE_CURVE('',#158,#158,#36,.T.);
#199=EDGE_CURVE('',#141,#158,#104,.T.);
#200=ORIENTED_EDGE('',*,*,#159,.F.);
#201=ORIENTED_EDGE('',*,*,#160,.T.);
#202=ORIENTED_EDGE('',*,*,#161,.F.);
#203=ORIENTED_EDGE('',*,*,#162,.F.);
#204=ORIENTED_EDGE('',*,*,#163,.F.);
#205=ORIENTED_EDGE('',*,*,#164,.T.);
#206=ORIENTED_EDGE('',*,*,#165,.F.);
#207=ORIENTED_EDGE('',*,*,#162,.T.);
#208=ORIENTED_EDGE('',*,*,#166,.F.);
#209=ORIENTED_EDGE('',*,*,#167,.F.);
#210=ORIENTED_EDGE('',*,*,#168,.F.);
#211=ORIENTED_EDGE('',*,*,#167,.T.);
#212=ORIENTED_EDGE('',*,*,#169,.F.);
#213=ORIENTED_EDGE('',*,*,#160,.F.);
#214=ORIENTED_EDGE('',*,*,#169,.T.);
#215=ORIENTED_EDGE('',*,*,#166,.T.);
#216=ORIENTED_EDGE('',*,*,#161,.T.);
#217=ORIENTED_EDGE('',*,*,#170,.F.);
#218=ORIENTED_EDGE('',*,*,#163,.T.);
#219=ORIENTED_EDGE('',*,*,#168,.T.);
#220=ORIENTED_EDGE('',*,*,#159,.T.);
#221=ORIENTED_EDGE('',*,*,#165,.T.);
#222=ORIENTED_EDGE('',*,*,#171,.T.);
#223=ORIENTED_EDGE('',*,*,#172,.T.);
#224=ORIENTED_EDGE('',*,*,#173,.T.);
#225=ORIENTED_EDGE('',*,*,#174,.T.);
#226=ORIENTED_EDGE('',*,*,#175,.T.);
#227=ORIENTED_EDGE('',*,*,#176,.F.);
#228=ORIENTED_EDGE('',*,*,#177,.F.);
#229=ORIENTED_EDGE('',*,*,#173,.F.);
#230=ORIENTED_EDGE('',*,*,#178,.T.);
#231=ORIENTED_EDGE('',*,*,#179,.F.);
#232=ORIENTED_EDGE('',*,*,#178,.F.);
#233=ORIENTED_EDGE('',*,*,#172,.F.);
#234=ORIENTED_EDGE('',*,*,#180,.T.);
#235=ORIENTED_EDGE('',*,*,#181,.F.);
#236=ORIENTED_EDGE('',*,*,#180,.F.);
#237=ORIENTED_EDGE('',*,*,#171,.F.);
#238=ORIENTED_EDGE('',*,*,#182,.T.);
#239=ORIENTED_EDGE('',*,*,#183,.F.);
#240=ORIENTED_EDGE('',*,*,#182,.F.);
#241=ORIENTED_EDGE('',*,*,#164,.F.);
#242=ORIENTED_EDGE('',*,*,#184,.T.);
#243=ORIENTED_EDGE('',*,*,#185,.F.);
#244=ORIENTED_EDGE('',*,*,#184,.F.);
#245=ORIENTED_EDGE('',*,*,#175,.F.);
#246=ORIENTED_EDGE('',*,*,#186,.T.);
#247=ORIENTED_EDGE('',*,*,#187,.F.);
#248=ORIENTED_EDGE('',*,*,#186,.F.);
#249=ORIENTED_EDGE('',*,*,#174,.F.);
#250=ORIENTED_EDGE('',*,*,#177,.T.);
#251=ORIENTED_EDGE('',*,*,#176,.T.);
#252=ORIENTED_EDGE('',*,*,#179,.T.);
#253=ORIENTED_EDGE('',*,*,#181,.T.);
#254=ORIENTED_EDGE('',*,*,#183,.T.);
#255=ORIENTED_EDGE('',*,*,#185,.T.);
#256=ORIENTED_EDGE('',*,*,#187,.T.);
#257=ORIENTED_EDGE('',*,*,#188,.F.);
#258=ORIENTED_EDGE('',*,*,#189,.F.);
#259=ORIENTED_EDGE('',*,*,#190,.T.);
#260=ORIENTED_EDGE('',*,*,#188,.T.);
#261=ORIENTED_EDGE('',*,*,#190,.F.);
#262=ORIENTED_EDGE('',*,*,#191,.F.);
#263=ORIENTED_EDGE('',*,*,#192,.F.);
#264=ORIENTED_EDGE('',*,*,#193,.T.);
#265=ORIENTED_EDGE('',*,*,#189,.T.);
#266=ORIENTED_EDGE('',*,*,#193,.F.);
#267=ORIENTED_EDGE('',*,*,#191,.T.);
#268=ORIENTED_EDGE('',*,*,#192,.T.);
#269=ORIENTED_EDGE('',*,*,#194,.T.);
#270=ORIENTED_EDGE('',*,*,#195,.T.);
#271=ORIENTED_EDGE('',*,*,#194,.F.);
#272=ORIENTED_EDGE('',*,*,#196,.F.);
#273=ORIENTED_EDGE('',*,*,#195,.F.);
#274=ORIENTED_EDGE('',*,*,#196,.T.);
#275=ORIENTED_EDGE('',*,*,#197,.T.);
#276=ORIENTED_EDGE('',*,*,#198,.T.);
#277=ORIENTED_EDGE('',*,*,#197,.F.);
#278=ORIENTED_EDGE('',*,*,#170,.T.);
#279=ORIENTED_EDGE('',*,*,#199,.T.);
#280=ORIENTED_EDGE('',*,*,#198,.F.);
#281=ORIENTED_EDGE('',*,*,#199,.F.);
#282=PLANE('',#336);
#283=PLANE('',#337);
#284=PLANE('',#338);
#285=PLANE('',#339);
#286=PLANE('',#340);
#287=PLANE('',#344);
#288=PLANE('',#347);
#289=PLANE('',#348);
#290=PLANE('',#349);
#291=PLANE('',#352);
#292=PLANE('',#353);
#293=PLANE('',#363);
#294=ADVANCED_FACE('',(#37),#282,.T.);
#295=ADVANCED_FACE('',(#38),#283,.T.);
#296=ADVANCED_FACE('',(#39),#284,.T.);
#297=ADVANCED_FACE('',(#40),#285,.T.);
#298=ADVANCED_FACE('',(#41,#22),#286,.F.);
#299=ADVANCED_FACE('',(#42),#287,.F.);
#300=ADVANCED_FACE('',(#43),#18,.F.);
#301=ADVANCED_FACE('',(#44),#288,.F.);
#302=ADVANCED_FACE('',(#45),#289,.F.);
#303=ADVANCED_FACE('',(#46),#290,.F.);
#304=ADVANCED_FACE('',(#47),#19,.F.);
#305=ADVANCED_FACE('',(#48),#291,.T.);
#306=ADVANCED_FACE('',(#49),#292,.T.);
#307=ADVANCED_FACE('',(#50),#20,.T.);
#308=ADVANCED_FACE('',(#51),#16,.T.);
#309=ADVANCED_FACE('',(#52),#15,.F.);
#310=ADVANCED_FACE('',(#53,#23),#293,.T.);
#311=ADVANCED_FACE('',(#54),#21,.T.);
#312=ADVANCED_FACE('',(#55),#17,.T.);
#313=CLOSED_SHELL('',(#294,#295,#296,#297,#298,#299,#300,#301,#302,#303,
#304,#305,#306,#307,#308,#309,#310,#311,#312));
#314=DERIVED_UNIT_ELEMENT(#317,1.);
#315=DERIVED_UNIT_ELEMENT(#554,-3.);
#316=DIMENSIONAL_EXPONENTS(0.,1.,0.,0.,0.,0.,0.);
#317=(
CONVERSION_BASED_UNIT('gram',#319)
MASS_UNIT()
NAMED_UNIT(#316)
);
#318=(
MASS_UNIT()
NAMED_UNIT(*)
SI_UNIT(.KILO.,.GRAM.)
);
#319=MASS_MEASURE_WITH_UNIT(MASS_MEASURE(0.001),#318);
#320=DERIVED_UNIT((#314,#315));
#321=MEASURE_REPRESENTATION_ITEM('density measure',
POSITIVE_RATIO_MEASURE(1.),#320);
#322=PROPERTY_DEFINITION_REPRESENTATION(#327,#324);
#323=PROPERTY_DEFINITION_REPRESENTATION(#328,#325);
#324=REPRESENTATION('material name',(#326),#551);
#325=REPRESENTATION('density',(#321),#551);
#326=DESCRIPTIVE_REPRESENTATION_ITEM('Allgemein','Allgemein');
#327=PROPERTY_DEFINITION('material property','material name',#561);
#328=PROPERTY_DEFINITION('material property','density of part',#561);
#329=DATE_TIME_ROLE('creation_date');
#330=APPLIED_DATE_AND_TIME_ASSIGNMENT(#331,#329,(#561));
#331=DATE_AND_TIME(#332,#333);
#332=CALENDAR_DATE(2015,24,4);
#333=LOCAL_TIME(0,0,0.,#334);
#334=COORDINATED_UNIVERSAL_TIME_OFFSET(0,0,.BEHIND.);
#335=AXIS2_PLACEMENT_3D('',#462,#368,#369);
#336=AXIS2_PLACEMENT_3D('',#463,#370,#371);
#337=AXIS2_PLACEMENT_3D('',#472,#376,#377);
#338=AXIS2_PLACEMENT_3D('',#482,#383,#384);
#339=AXIS2_PLACEMENT_3D('',#485,#387,#388);
#340=AXIS2_PLACEMENT_3D('',#486,#389,#390);
#341=AXIS2_PLACEMENT_3D('',#488,#391,#392);
#342=AXIS2_PLACEMENT_3D('',#492,#394,#395);
#343=AXIS2_PLACEMENT_3D('',#496,#397,#398);
#344=AXIS2_PLACEMENT_3D('',#498,#400,#401);
#345=AXIS2_PLACEMENT_3D('',#504,#405,#406);
#346=AXIS2_PLACEMENT_3D('',#506,#407,#408);
#347=AXIS2_PLACEMENT_3D('',#508,#410,#411);
#348=AXIS2_PLACEMENT_3D('',#512,#414,#415);
#349=AXIS2_PLACEMENT_3D('',#516,#418,#419);
#350=AXIS2_PLACEMENT_3D('',#520,#422,#423);
#351=AXIS2_PLACEMENT_3D('',#521,#424,#425);
#352=AXIS2_PLACEMENT_3D('',#522,#426,#427);
#353=AXIS2_PLACEMENT_3D('',#523,#428,#429);
#354=AXIS2_PLACEMENT_3D('',#525,#430,#431);
#355=AXIS2_PLACEMENT_3D('',#526,#432,#433);
#356=AXIS2_PLACEMENT_3D('',#528,#434,#435);
#357=AXIS2_PLACEMENT_3D('',#530,#437,#438);
#358=AXIS2_PLACEMENT_3D('',#533,#439,#440);
#359=AXIS2_PLACEMENT_3D('',#534,#441,#442);
#360=AXIS2_PLACEMENT_3D('',#536,#444,#445);
#361=AXIS2_PLACEMENT_3D('',#538,#446,#447);
#362=AXIS2_PLACEMENT_3D('',#539,#448,#449);
#363=AXIS2_PLACEMENT_3D('',#540,#450,#451);
#364=AXIS2_PLACEMENT_3D('',#542,#452,#453);
#365=AXIS2_PLACEMENT_3D('',#543,#454,#455);
#366=AXIS2_PLACEMENT_3D('',#546,#457,#458);
#367=AXIS2_PLACEMENT_3D('',#547,#459,#460);
#368=DIRECTION('axis',(0.,0.,1.));
#369=DIRECTION('refdir',(1.,0.,0.));
#370=DIRECTION('center_axis',(-0.866025403784439,-0.5,0.));
#371=DIRECTION('ref_axis',(0.5,-0.866025403784439,0.));
#372=DIRECTION('',(-0.5,0.866025403784439,0.));
#373=DIRECTION('',(0.,0.,1.));
#374=DIRECTION('',(0.5,-0.866025403784439,0.));
#375=DIRECTION('',(0.,0.,1.));
#376=DIRECTION('center_axis',(-8.92143501930929E-16,1.,0.));
#377=DIRECTION('ref_axis',(-1.,-8.92143501930929E-16,0.));
#378=DIRECTION('',(1.,8.92143501930929E-16,0.));
#379=DIRECTION('',(-1.,-4.62592926927149E-16,0.));
#380=DIRECTION('',(1.,8.92143501930929E-16,0.));
#381=DIRECTION('',(-1.,-8.92143501930929E-16,0.));
#382=DIRECTION('',(0.,0.,1.));
#383=DIRECTION('center_axis',(0.864824626911783,-0.502074062949775,0.));
#384=DIRECTION('ref_axis',(0.502074062949775,0.864824626911783,0.));
#385=DIRECTION('',(-0.502074062949775,-0.864824626911783,0.));
#386=DIRECTION('',(0.502074062949775,0.864824626911783,0.));
#387=DIRECTION('center_axis',(0.,0.,1.));
#388=DIRECTION('ref_axis',(1.,0.,0.));
#389=DIRECTION('center_axis',(0.,0.,-1.));
#390=DIRECTION('ref_axis',(-1.,0.,0.));
#391=DIRECTION('center_axis',(0.,0.,-1.));
#392=DIRECTION('ref_axis',(-1.,0.,0.));
#393=DIRECTION('',(-6.03940765710444E-16,1.,0.));
#394=DIRECTION('center_axis',(0.,0.,-1.));
#395=DIRECTION('ref_axis',(9.25185853854296E-16,-1.,0.));
#396=DIRECTION('',(1.,-9.25185853854297E-16,0.));
#397=DIRECTION('center_axis',(0.,0.,-1.));
#398=DIRECTION('ref_axis',(-1.,0.,0.));
#399=DIRECTION('',(6.03940765710444E-16,-1.,0.));
#400=DIRECTION('center_axis',(9.2391791879603E-16,0.998629534754574,-0.0523359562429439));
#401=DIRECTION('ref_axis',(1.,-9.25185853854297E-16,0.));
#402=DIRECTION('',(-1.,9.25185853854297E-16,0.));
#403=DIRECTION('',(-4.61958959398015E-17,-0.0523359562429439,-0.998629534754574));
#404=DIRECTION('',(3.46469219548511E-17,-0.0523359562429441,-0.998629534754574));
#405=DIRECTION('center_axis',(0.,0.,1.));
#406=DIRECTION('ref_axis',(9.25185853854296E-16,-1.,0.));
#407=DIRECTION('center_axis',(0.,0.,1.));
#408=DIRECTION('ref_axis',(9.25185853854296E-16,-1.,0.));
#409=DIRECTION('',(0.0523359562429438,0.,-0.998629534754574));
#410=DIRECTION('center_axis',(-0.998629534754574,-6.03113085880742E-16,
-0.0523359562429438));
#411=DIRECTION('ref_axis',(-6.03940765710444E-16,1.,0.));
#412=DIRECTION('',(6.03940765710444E-16,-1.,0.));
#413=DIRECTION('',(0.0522644276887139,0.0522644276887139,-0.997264688634237));
#414=DIRECTION('center_axis',(4.61958959398015E-16,-0.998629534754574,-0.0523359562429438));
#415=DIRECTION('ref_axis',(-1.,-4.62592926927149E-16,0.));
#416=DIRECTION('',(1.,4.62592926927149E-16,0.));
#417=DIRECTION('',(-0.0522644276887139,0.0522644276887139,-0.997264688634237));
#418=DIRECTION('center_axis',(0.998629534754574,6.03113085880742E-16,-0.0523359562429438));
#419=DIRECTION('ref_axis',(6.03940765710444E-16,-1.,0.));
#420=DIRECTION('',(-6.03940765710444E-16,1.,0.));
#421=DIRECTION('',(-0.0523359562429443,0.,-0.998629534754574));
#422=DIRECTION('center_axis',(0.,0.,1.));
#423=DIRECTION('ref_axis',(-1.,0.,0.));
#424=DIRECTION('center_axis',(0.,0.,1.));
#425=DIRECTION('ref_axis',(-1.,0.,0.));
#426=DIRECTION('center_axis',(1.03336907770781E-30,-1.62733491356333E-31,
1.));
#427=DIRECTION('ref_axis',(1.,0.,-1.03336907770781E-30));
#428=DIRECTION('center_axis',(0.,1.15648231731787E-16,-1.));
#429=DIRECTION('ref_axis',(-1.,0.,0.));
#430=DIRECTION('center_axis',(0.,-1.15648231731787E-16,1.));
#431=DIRECTION('ref_axis',(0.,-1.,-1.15648231731787E-16));
#432=DIRECTION('center_axis',(0.,-1.15648231731787E-16,1.));
#433=DIRECTION('ref_axis',(0.,-1.,-1.15648231731787E-16));
#434=DIRECTION('center_axis',(0.,-1.15648231731787E-16,1.));
#435=DIRECTION('ref_axis',(0.,-1.,-1.15648231731787E-16));
#436=DIRECTION('',(8.65956056235492E-17,-0.707106781186547,-0.707106781186548));
#437=DIRECTION('center_axis',(0.,-1.15648231731787E-16,1.));
#438=DIRECTION('ref_axis',(0.,-1.,-1.15648231731787E-16));
#439=DIRECTION('center_axis',(0.,-1.15648231731787E-16,1.));
#440=DIRECTION('ref_axis',(0.,-1.,-1.15648231731787E-16));
#441=DIRECTION('center_axis',(0.,-1.15648231731787E-16,1.));
#442=DIRECTION('ref_axis',(0.,-1.,-1.15648231731787E-16));
#443=DIRECTION('',(0.,1.15648231731787E-16,-1.));
#444=DIRECTION('center_axis',(0.,-1.15648231731787E-16,1.));
#445=DIRECTION('ref_axis',(1.,0.,0.));
#446=DIRECTION('center_axis',(1.22464679914735E-16,-1.,-1.15648231731787E-16));
#447=DIRECTION('ref_axis',(-1.,-1.22464679914735E-16,0.));
#448=DIRECTION('center_axis',(0.,5.78241158658936E-17,-1.));
#449=DIRECTION('ref_axis',(1.,0.,0.));
#450=DIRECTION('center_axis',(0.,0.,-1.));
#451=DIRECTION('ref_axis',(-1.,0.,0.));
#452=DIRECTION('center_axis',(0.,0.,1.));
#453=DIRECTION('ref_axis',(-1.,0.,0.));
#454=DIRECTION('center_axis',(0.,0.,1.));
#455=DIRECTION('ref_axis',(-1.,0.,0.));
#456=DIRECTION('',(0.5,-6.12323399573677E-17,0.866025403784439));
#457=DIRECTION('center_axis',(0.,0.,-1.));
#458=DIRECTION('ref_axis',(-1.,0.,0.));
#459=DIRECTION('center_axis',(0.,0.,1.));
#460=DIRECTION('ref_axis',(-1.,0.,0.));
#461=DIRECTION('',(0.,0.,-1.));
#462=CARTESIAN_POINT('',(0.,0.,0.));
#463=CARTESIAN_POINT('Origin',(-0.700000000000001,-0.884999999999998,4.));
#464=CARTESIAN_POINT('',(-0.00193446116774347,-2.09408498027041,4.));
#465=CARTESIAN_POINT('',(-0.700000000000001,-0.884999999999998,4.));
#466=CARTESIAN_POINT('',(-0.804108120587307,-0.704679445662276,4.));
#467=CARTESIAN_POINT('',(-0.00193446116774347,-2.09408498027041,4.5));
#468=CARTESIAN_POINT('',(-0.00193446116774347,-2.09408498027041,4.));
#469=CARTESIAN_POINT('',(-0.700000000000001,-0.884999999999998,4.5));
#470=CARTESIAN_POINT('',(-0.700000000000001,-0.884999999999998,4.5));
#471=CARTESIAN_POINT('',(-0.700000000000001,-0.884999999999998,4.));
#472=CARTESIAN_POINT('Origin',(0.7,-0.884999999999997,4.));
#473=CARTESIAN_POINT('',(0.299999999999999,-0.884999999999998,4.));
#474=CARTESIAN_POINT('',(0.7,-0.884999999999997,4.));
#475=CARTESIAN_POINT('',(0.35,-0.884999999999997,4.));
#476=CARTESIAN_POINT('',(-0.3,-0.884999999999998,4.));
#477=CARTESIAN_POINT('',(-0.15,-0.884999999999998,4.));
#478=CARTESIAN_POINT('',(0.35,-0.884999999999997,4.));
#479=CARTESIAN_POINT('',(0.7,-0.884999999999997,4.5));
#480=CARTESIAN_POINT('',(0.7,-0.884999999999997,4.5));
#481=CARTESIAN_POINT('',(0.7,-0.884999999999997,4.));
#482=CARTESIAN_POINT('Origin',(-0.00193446116774352,-2.09408498027041,4.));
#483=CARTESIAN_POINT('',(0.4529415030471,-1.31055927146958,4.));
#484=CARTESIAN_POINT('',(-0.00193446116774354,-2.09408498027041,4.5));
#485=CARTESIAN_POINT('Origin',(-4.85722573273506E-16,-1.48954249013521,
4.5));
#486=CARTESIAN_POINT('Origin',(0.,0.,4.));
#487=CARTESIAN_POINT('',(2.3,2.81668763803891E-16,4.));
#488=CARTESIAN_POINT('Origin',(0.,0.,4.));
#489=CARTESIAN_POINT('',(-0.300000000000002,1.815,4.));
#490=CARTESIAN_POINT('',(-0.300000000000002,0.9075,4.));
#491=CARTESIAN_POINT('',(-0.150000000000002,1.965,4.));
#492=CARTESIAN_POINT('Origin',(-0.150000000000002,1.815,4.));
#493=CARTESIAN_POINT('',(0.149999999999998,1.965,4.));
#494=CARTESIAN_POINT('',(0.0749999999999997,1.965,4.));
#495=CARTESIAN_POINT('',(0.299999999999998,1.815,4.));
#496=CARTESIAN_POINT('Origin',(0.149999999999998,1.815,4.));
#497=CARTESIAN_POINT('',(0.299999999999999,-0.442499999999999,4.));
#498=CARTESIAN_POINT('Origin',(0.149999999999998,1.965,4.));
#499=CARTESIAN_POINT('',(0.149999999999998,1.88638833107544,2.5));
#500=CARTESIAN_POINT('',(-0.150000000000002,1.88638833107544,2.5));
#501=CARTESIAN_POINT('',(-0.150000000000002,1.88638833107544,2.5));
#502=CARTESIAN_POINT('',(0.149999999999998,1.965,4.));
#503=CARTESIAN_POINT('',(-0.150000000000002,1.965,4.));
#504=CARTESIAN_POINT('Origin',(-0.150000000000002,1.815,4.));
#505=CARTESIAN_POINT('',(-0.22138833107544,1.815,2.5));
#506=CARTESIAN_POINT('Origin',(-0.150000000000002,1.815,2.5));
#507=CARTESIAN_POINT('',(-0.300000000000002,1.815,4.));
#508=CARTESIAN_POINT('Origin',(-0.300000000000002,1.815,4.));
#509=CARTESIAN_POINT('',(-0.221388331075439,-0.806388331075436,2.5));
#510=CARTESIAN_POINT('',(-0.221388331075439,-0.884999999999998,2.5));
#511=CARTESIAN_POINT('',(-0.296312379957802,-0.881312379957799,3.9296360179224));
#512=CARTESIAN_POINT('Origin',(-0.3,-0.884999999999998,4.));
#513=CARTESIAN_POINT('',(0.221388331075437,-0.806388331075436,2.5));
#514=CARTESIAN_POINT('',(0.299999999999999,-0.806388331075436,2.5));
#515=CARTESIAN_POINT('',(0.299180528879511,-0.884180528879509,3.98436355953831));
#516=CARTESIAN_POINT('Origin',(0.299999999999999,-0.884999999999998,4.));
#517=CARTESIAN_POINT('',(0.221388331075435,1.815,2.5));
#518=CARTESIAN_POINT('',(0.221388331075436,1.815,2.5));
#519=CARTESIAN_POINT('',(0.299999999999998,1.815,4.));
#520=CARTESIAN_POINT('Origin',(0.149999999999998,1.815,4.));
#521=CARTESIAN_POINT('Origin',(0.149999999999998,1.815,2.5));
#522=CARTESIAN_POINT('Origin',(-1.44090468723324E-15,0.512289786996319,
2.5));
#523=CARTESIAN_POINT('Origin',(0.,-0.499999999999999,-10.));
#524=CARTESIAN_POINT('',(-1.22464679914735E-16,1.,-10.));
#525=CARTESIAN_POINT('Origin',(0.,1.15648231731787E-15,-10.));
#526=CARTESIAN_POINT('Origin',(0.,1.1420262883514E-15,-9.875));
#527=CARTESIAN_POINT('',(-1.53080849893419E-16,1.25,-9.75));
#528=CARTESIAN_POINT('Origin',(0.,1.12757025938492E-15,-9.75));
#529=CARTESIAN_POINT('',(-1.37772764904077E-16,1.125,-9.875));
#530=CARTESIAN_POINT('Origin',(0.,5.74575256608175E-16,-4.96830127018922));
#531=CARTESIAN_POINT('',(-1.25,-1.43065419235171E-16,-0.186602540378444));
#532=CARTESIAN_POINT('',(-1.53080849893419E-16,1.25,-0.186602540378444));
#533=CARTESIAN_POINT('Origin',(0.,2.15802538314265E-17,-0.186602540378444));
#534=CARTESIAN_POINT('Origin',(0.,2.15802538314265E-17,-0.186602540378444));
#535=CARTESIAN_POINT('',(-1.53080849893419E-16,1.25,-4.96830127018922));
#536=CARTESIAN_POINT('Origin',(0.,0.,-0.1));
#537=CARTESIAN_POINT('',(-1.3,-1.70768907062335E-16,-4.93728053413222E-33));
#538=CARTESIAN_POINT('Origin',(-1.3,-1.59204083889156E-16,-0.1));
#539=CARTESIAN_POINT('Origin',(0.,-5.78241158658935E-18,0.));
#540=CARTESIAN_POINT('Origin',(0.,0.,0.));
#541=CARTESIAN_POINT('',(2.18452994616207,2.67527760620892E-16,0.));
#542=CARTESIAN_POINT('Origin',(0.,0.,0.));
#543=CARTESIAN_POINT('Origin',(0.,0.,0.1));
#544=CARTESIAN_POINT('',(2.3,-2.81668763803891E-16,0.2));
#545=CARTESIAN_POINT('',(2.24226497308104,-2.74598262212392E-16,0.1));
#546=CARTESIAN_POINT('Origin',(0.,0.,0.2));
#547=CARTESIAN_POINT('Origin',(0.,0.,0.));
#548=CARTESIAN_POINT('',(2.3,2.81668763803891E-16,0.));
#549=UNCERTAINTY_MEASURE_WITH_UNIT(LENGTH_MEASURE(0.01),#553,
'DISTANCE_ACCURACY_VALUE',
'Maximum model space distance between geometric entities at asserted c
onnectivities');
#550=UNCERTAINTY_MEASURE_WITH_UNIT(LENGTH_MEASURE(0.01),#553,
'DISTANCE_ACCURACY_VALUE',
'Maximum model space distance between geometric entities at asserted c
onnectivities');
#551=(
GEOMETRIC_REPRESENTATION_CONTEXT(3)
GLOBAL_UNCERTAINTY_ASSIGNED_CONTEXT((#549))
GLOBAL_UNIT_ASSIGNED_CONTEXT((#553,#555,#556))
REPRESENTATION_CONTEXT('','3D')
);
#552=(
GEOMETRIC_REPRESENTATION_CONTEXT(3)
GLOBAL_UNCERTAINTY_ASSIGNED_CONTEXT((#550))
GLOBAL_UNIT_ASSIGNED_CONTEXT((#553,#555,#556))
REPRESENTATION_CONTEXT('','3D')
);
#553=(
LENGTH_UNIT()
NAMED_UNIT(*)
SI_UNIT(.MILLI.,.METRE.)
);
#554=(
LENGTH_UNIT()
NAMED_UNIT(*)
SI_UNIT(.CENTI.,.METRE.)
);
#555=(
NAMED_UNIT(*)
PLANE_ANGLE_UNIT()
SI_UNIT($,.RADIAN.)
);
#556=(
NAMED_UNIT(*)
SI_UNIT($,.STERADIAN.)
SOLID_ANGLE_UNIT()
);
#557=SHAPE_DEFINITION_REPRESENTATION(#558,#559);
#558=PRODUCT_DEFINITION_SHAPE('',$,#561);
#559=SHAPE_REPRESENTATION('',(#335),#551);
#560=PRODUCT_DEFINITION_CONTEXT('part definition',#565,'design');
#561=PRODUCT_DEFINITION('2010-05-00 Stelleinsatz',
'2010-05-00 Stelleinsatz',#562,#560);
#562=PRODUCT_DEFINITION_FORMATION('',$,#567);
#563=PRODUCT_RELATED_PRODUCT_CATEGORY('2010-05-00 Stelleinsatz',
'2010-05-00 Stelleinsatz',(#567));
#564=APPLICATION_PROTOCOL_DEFINITION('international standard',
'automotive_design',2009,#565);
#565=APPLICATION_CONTEXT(
'Core Data for Automotive Mechanical Design Process');
#566=PRODUCT_CONTEXT('part definition',#565,'mechanical');
#567=PRODUCT('2010-05-00 Stelleinsatz','2010-05-00 Stelleinsatz',$,(#566));
#568=PRESENTATION_STYLE_ASSIGNMENT((#569));
#569=SURFACE_STYLE_USAGE(.BOTH.,#572);
#570=SURFACE_STYLE_RENDERING_WITH_PROPERTIES($,#576,(#571));
#571=SURFACE_STYLE_TRANSPARENT(0.);
#572=SURFACE_SIDE_STYLE('',(#573,#570));
#573=SURFACE_STYLE_FILL_AREA(#574);
#574=FILL_AREA_STYLE('',(#575));
#575=FILL_AREA_STYLE_COLOUR('',#576);
#576=COLOUR_RGB('',0.749019607843137,0.749019607843137,0.749019607843137);
ENDSEC;
END-ISO-10303-21;
