ISO-10303-21;
HEADER;
/* Generated by software containing ST-Developer
 * from STEP Tools, Inc. (www.steptools.com) 
 */

FILE_DESCRIPTION(
/* description */ (''),
/* implementation_level */ '2;1');

FILE_NAME(
/* name */ 'Dati-7000_G$6$00.stp',
/* time_stamp */ '2025-09-02T15:55:22+02:00',
/* author */ ('olafg'),
/* organization */ (''),
/* preprocessor_version */ 'ST-DEVELOPER v20',
/* originating_system */ 'Autodesk Inventor 2024',
/* authorisation */ '');

FILE_SCHEMA (('AUTOMOTIVE_DESIGN { 1 0 10303 214 3 1 1 }'));
ENDSEC;

DATA;
#10=MECHANICAL_DESIGN_GEOMETRIC_PRESENTATION_REPRESENTATION('',(#13),#550);
#11=SHAPE_REPRESENTATION_RELATIONSHIP('SRR','None',#557,#12);
#12=ADVANCED_BREP_SHAPE_REPRESENTATION('',(#14),#549);
#13=STYLED_ITEM('',(#566),#14);
#14=MANIFOLD_SOLID_BREP('Volumenk\X\F6rper1',#315);
#15=TOROIDAL_SURFACE('',#360,0.85,0.1);
#16=CYLINDRICAL_SURFACE('',#357,0.8);
#17=CYLINDRICAL_SURFACE('',#367,1.55);
#18=CONICAL_SURFACE('',#347,0.0999999999999998,0.139626340159546);
#19=CONICAL_SURFACE('',#351,0.0999999999999996,0.139626340159546);
#20=CONICAL_SURFACE('',#355,0.725,0.78539816339745);
#21=CONICAL_SURFACE('',#365,1.50669872981078,0.523598775598298);
#22=FACE_BOUND('',#59,.T.);
#23=FACE_BOUND('',#72,.T.);
#24=CIRCLE('',#343,1.55);
#25=CIRCLE('',#344,0.0999999999999998);
#26=CIRCLE('',#345,0.0999999999999996);
#27=CIRCLE('',#354,0.65);
#28=CIRCLE('',#356,0.799999999999999);
#29=CIRCLE('',#358,0.8);
#30=CIRCLE('',#359,0.8);
#31=CIRCLE('',#361,0.1);
#32=CIRCLE('',#362,0.85);
#33=CIRCLE('',#364,1.46339745962156);
#34=CIRCLE('',#366,1.55);
#35=FACE_OUTER_BOUND('',#54,.T.);
#36=FACE_OUTER_BOUND('',#55,.T.);
#37=FACE_OUTER_BOUND('',#56,.T.);
#38=FACE_OUTER_BOUND('',#57,.T.);
#39=FACE_OUTER_BOUND('',#58,.T.);
#40=FACE_OUTER_BOUND('',#60,.T.);
#41=FACE_OUTER_BOUND('',#61,.T.);
#42=FACE_OUTER_BOUND('',#62,.T.);
#43=FACE_OUTER_BOUND('',#63,.T.);
#44=FACE_OUTER_BOUND('',#64,.T.);
#45=FACE_OUTER_BOUND('',#65,.T.);
#46=FACE_OUTER_BOUND('',#66,.T.);
#47=FACE_OUTER_BOUND('',#67,.T.);
#48=FACE_OUTER_BOUND('',#68,.T.);
#49=FACE_OUTER_BOUND('',#69,.T.);
#50=FACE_OUTER_BOUND('',#70,.T.);
#51=FACE_OUTER_BOUND('',#71,.T.);
#52=FACE_OUTER_BOUND('',#73,.T.);
#53=FACE_OUTER_BOUND('',#74,.T.);
#54=EDGE_LOOP('',(#202,#203,#204,#205,#206,#207));
#55=EDGE_LOOP('',(#208,#209,#210,#211));
#56=EDGE_LOOP('',(#212,#213,#214,#215));
#57=EDGE_LOOP('',(#216,#217,#218));
#58=EDGE_LOOP('',(#219));
#59=EDGE_LOOP('',(#220,#221,#222,#223,#224,#225,#226,#227,#228));
#60=EDGE_LOOP('',(#229,#230,#231,#232,#233,#234));
#61=EDGE_LOOP('',(#235,#236,#237));
#62=EDGE_LOOP('',(#238,#239,#240,#241,#242));
#63=EDGE_LOOP('',(#243,#244,#245,#246));
#64=EDGE_LOOP('',(#247,#248,#249,#250,#251));
#65=EDGE_LOOP('',(#252,#253,#254));
#66=EDGE_LOOP('',(#255,#256,#257,#258));
#67=EDGE_LOOP('',(#259));
#68=EDGE_LOOP('',(#260,#261,#262,#263));
#69=EDGE_LOOP('',(#264,#265,#266,#267,#268));
#70=EDGE_LOOP('',(#269,#270,#271,#272,#273));
#71=EDGE_LOOP('',(#274));
#72=EDGE_LOOP('',(#275));
#73=EDGE_LOOP('',(#276,#277,#278,#279));
#74=EDGE_LOOP('',(#280,#281,#282,#283));
#75=LINE('',#464,#105);
#76=LINE('',#466,#106);
#77=LINE('',#468,#107);
#78=LINE('',#470,#108);
#79=LINE('',#472,#109);
#80=LINE('',#473,#110);
#81=LINE('',#476,#111);
#82=LINE('',#478,#112);
#83=LINE('',#479,#113);
#84=LINE('',#481,#114);
#85=LINE('',#482,#115);
#86=LINE('',#488,#116);
#87=LINE('',#492,#117);
#88=LINE('',#495,#118);
#89=LINE('',#498,#119);
#90=LINE('',#500,#120);
#91=LINE('',#502,#121);
#92=LINE('',#504,#122);
#93=LINE('',#505,#123);
#94=LINE('',#507,#124);
#95=LINE('',#510,#125);
#96=LINE('',#511,#126);
#97=LINE('',#514,#127);
#98=LINE('',#515,#128);
#99=LINE('',#517,#129);
#100=LINE('',#518,#130);
#101=LINE('',#527,#131);
#102=LINE('',#533,#132);
#103=LINE('',#543,#133);
#104=LINE('',#546,#134);
#105=VECTOR('',#372,10.);
#106=VECTOR('',#373,10.);
#107=VECTOR('',#374,10.);
#108=VECTOR('',#375,10.);
#109=VECTOR('',#376,10.);
#110=VECTOR('',#377,10.);
#111=VECTOR('',#380,10.);
#112=VECTOR('',#381,10.);
#113=VECTOR('',#382,10.);
#114=VECTOR('',#385,10.);
#115=VECTOR('',#386,10.);
#116=VECTOR('',#393,10.);
#117=VECTOR('',#396,10.);
#118=VECTOR('',#399,10.);
#119=VECTOR('',#402,10.);
#120=VECTOR('',#403,10.);
#121=VECTOR('',#404,10.);
#122=VECTOR('',#405,10.);
#123=VECTOR('',#406,10.);
#124=VECTOR('',#409,10.);
#125=VECTOR('',#412,10.);
#126=VECTOR('',#413,10.);
#127=VECTOR('',#416,10.);
#128=VECTOR('',#417,10.);
#129=VECTOR('',#420,10.);
#130=VECTOR('',#421,10.);
#131=VECTOR('',#434,0.725);
#132=VECTOR('',#441,0.8);
#133=VECTOR('',#454,1.50669872981078);
#134=VECTOR('',#459,1.55);
#135=VERTEX_POINT('',#462);
#136=VERTEX_POINT('',#463);
#137=VERTEX_POINT('',#465);
#138=VERTEX_POINT('',#467);
#139=VERTEX_POINT('',#469);
#140=VERTEX_POINT('',#471);
#141=VERTEX_POINT('',#475);
#142=VERTEX_POINT('',#477);
#143=VERTEX_POINT('',#485);
#144=VERTEX_POINT('',#487);
#145=VERTEX_POINT('',#489);
#146=VERTEX_POINT('',#491);
#147=VERTEX_POINT('',#493);
#148=VERTEX_POINT('',#497);
#149=VERTEX_POINT('',#499);
#150=VERTEX_POINT('',#501);
#151=VERTEX_POINT('',#503);
#152=VERTEX_POINT('',#509);
#153=VERTEX_POINT('',#513);
#154=VERTEX_POINT('',#522);
#155=VERTEX_POINT('',#525);
#156=VERTEX_POINT('',#529);
#157=VERTEX_POINT('',#530);
#158=VERTEX_POINT('',#535);
#159=VERTEX_POINT('',#539);
#160=VERTEX_POINT('',#542);
#161=EDGE_CURVE('',#135,#136,#75,.T.);
#162=EDGE_CURVE('',#135,#137,#76,.T.);
#163=EDGE_CURVE('',#138,#137,#77,.T.);
#164=EDGE_CURVE('',#138,#139,#78,.T.);
#165=EDGE_CURVE('',#140,#139,#79,.T.);
#166=EDGE_CURVE('',#136,#140,#80,.T.);
#167=EDGE_CURVE('',#136,#141,#81,.T.);
#168=EDGE_CURVE('',#142,#140,#82,.T.);
#169=EDGE_CURVE('',#141,#142,#83,.T.);
#170=EDGE_CURVE('',#141,#138,#84,.T.);
#171=EDGE_CURVE('',#139,#142,#85,.T.);
#172=EDGE_CURVE('',#143,#143,#24,.T.);
#173=EDGE_CURVE('',#137,#144,#86,.T.);
#174=EDGE_CURVE('',#144,#145,#25,.T.);
#175=EDGE_CURVE('',#145,#146,#87,.T.);
#176=EDGE_CURVE('',#146,#147,#26,.T.);
#177=EDGE_CURVE('',#147,#135,#88,.T.);
#178=EDGE_CURVE('',#145,#148,#89,.T.);
#179=EDGE_CURVE('',#148,#149,#90,.T.);
#180=EDGE_CURVE('',#150,#149,#91,.T.);
#181=EDGE_CURVE('',#151,#150,#92,.T.);
#182=EDGE_CURVE('',#146,#151,#93,.T.);
#183=EDGE_CURVE('',#144,#148,#94,.T.);
#184=EDGE_CURVE('',#137,#152,#95,.T.);
#185=EDGE_CURVE('',#149,#152,#96,.T.);
#186=EDGE_CURVE('',#135,#153,#97,.T.);
#187=EDGE_CURVE('',#152,#153,#98,.T.);
#188=EDGE_CURVE('',#147,#151,#99,.T.);
#189=EDGE_CURVE('',#153,#150,#100,.T.);
#190=EDGE_CURVE('',#154,#154,#27,.T.);
#191=EDGE_CURVE('',#155,#155,#28,.T.);
#192=EDGE_CURVE('',#155,#154,#101,.T.);
#193=EDGE_CURVE('',#156,#157,#29,.T.);
#194=EDGE_CURVE('',#157,#156,#30,.T.);
#195=EDGE_CURVE('',#157,#155,#102,.T.);
#196=EDGE_CURVE('',#156,#158,#31,.T.);
#197=EDGE_CURVE('',#158,#158,#32,.T.);
#198=EDGE_CURVE('',#159,#159,#33,.T.);
#199=EDGE_CURVE('',#159,#160,#103,.T.);
#200=EDGE_CURVE('',#160,#160,#34,.T.);
#201=EDGE_CURVE('',#143,#160,#104,.T.);
#202=ORIENTED_EDGE('',*,*,#161,.F.);
#203=ORIENTED_EDGE('',*,*,#162,.T.);
#204=ORIENTED_EDGE('',*,*,#163,.F.);
#205=ORIENTED_EDGE('',*,*,#164,.T.);
#206=ORIENTED_EDGE('',*,*,#165,.F.);
#207=ORIENTED_EDGE('',*,*,#166,.F.);
#208=ORIENTED_EDGE('',*,*,#167,.F.);
#209=ORIENTED_EDGE('',*,*,#166,.T.);
#210=ORIENTED_EDGE('',*,*,#168,.F.);
#211=ORIENTED_EDGE('',*,*,#169,.F.);
#212=ORIENTED_EDGE('',*,*,#170,.F.);
#213=ORIENTED_EDGE('',*,*,#169,.T.);
#214=ORIENTED_EDGE('',*,*,#171,.F.);
#215=ORIENTED_EDGE('',*,*,#164,.F.);
#216=ORIENTED_EDGE('',*,*,#171,.T.);
#217=ORIENTED_EDGE('',*,*,#168,.T.);
#218=ORIENTED_EDGE('',*,*,#165,.T.);
#219=ORIENTED_EDGE('',*,*,#172,.F.);
#220=ORIENTED_EDGE('',*,*,#161,.T.);
#221=ORIENTED_EDGE('',*,*,#167,.T.);
#222=ORIENTED_EDGE('',*,*,#170,.T.);
#223=ORIENTED_EDGE('',*,*,#163,.T.);
#224=ORIENTED_EDGE('',*,*,#173,.T.);
#225=ORIENTED_EDGE('',*,*,#174,.T.);
#226=ORIENTED_EDGE('',*,*,#175,.T.);
#227=ORIENTED_EDGE('',*,*,#176,.T.);
#228=ORIENTED_EDGE('',*,*,#177,.T.);
#229=ORIENTED_EDGE('',*,*,#178,.T.);
#230=ORIENTED_EDGE('',*,*,#179,.T.);
#231=ORIENTED_EDGE('',*,*,#180,.F.);
#232=ORIENTED_EDGE('',*,*,#181,.F.);
#233=ORIENTED_EDGE('',*,*,#182,.F.);
#234=ORIENTED_EDGE('',*,*,#175,.F.);
#235=ORIENTED_EDGE('',*,*,#178,.F.);
#236=ORIENTED_EDGE('',*,*,#174,.F.);
#237=ORIENTED_EDGE('',*,*,#183,.T.);
#238=ORIENTED_EDGE('',*,*,#184,.T.);
#239=ORIENTED_EDGE('',*,*,#185,.F.);
#240=ORIENTED_EDGE('',*,*,#179,.F.);
#241=ORIENTED_EDGE('',*,*,#183,.F.);
#242=ORIENTED_EDGE('',*,*,#173,.F.);
#243=ORIENTED_EDGE('',*,*,#186,.T.);
#244=ORIENTED_EDGE('',*,*,#187,.F.);
#245=ORIENTED_EDGE('',*,*,#184,.F.);
#246=ORIENTED_EDGE('',*,*,#162,.F.);
#247=ORIENTED_EDGE('',*,*,#188,.T.);
#248=ORIENTED_EDGE('',*,*,#181,.T.);
#249=ORIENTED_EDGE('',*,*,#189,.F.);
#250=ORIENTED_EDGE('',*,*,#186,.F.);
#251=ORIENTED_EDGE('',*,*,#177,.F.);
#252=ORIENTED_EDGE('',*,*,#188,.F.);
#253=ORIENTED_EDGE('',*,*,#176,.F.);
#254=ORIENTED_EDGE('',*,*,#182,.T.);
#255=ORIENTED_EDGE('',*,*,#185,.T.);
#256=ORIENTED_EDGE('',*,*,#187,.T.);
#257=ORIENTED_EDGE('',*,*,#189,.T.);
#258=ORIENTED_EDGE('',*,*,#180,.T.);
#259=ORIENTED_EDGE('',*,*,#190,.F.);
#260=ORIENTED_EDGE('',*,*,#191,.F.);
#261=ORIENTED_EDGE('',*,*,#192,.T.);
#262=ORIENTED_EDGE('',*,*,#190,.T.);
#263=ORIENTED_EDGE('',*,*,#192,.F.);
#264=ORIENTED_EDGE('',*,*,#193,.F.);
#265=ORIENTED_EDGE('',*,*,#194,.F.);
#266=ORIENTED_EDGE('',*,*,#195,.T.);
#267=ORIENTED_EDGE('',*,*,#191,.T.);
#268=ORIENTED_EDGE('',*,*,#195,.F.);
#269=ORIENTED_EDGE('',*,*,#193,.T.);
#270=ORIENTED_EDGE('',*,*,#194,.T.);
#271=ORIENTED_EDGE('',*,*,#196,.T.);
#272=ORIENTED_EDGE('',*,*,#197,.T.);
#273=ORIENTED_EDGE('',*,*,#196,.F.);
#274=ORIENTED_EDGE('',*,*,#198,.F.);
#275=ORIENTED_EDGE('',*,*,#197,.F.);
#276=ORIENTED_EDGE('',*,*,#198,.T.);
#277=ORIENTED_EDGE('',*,*,#199,.T.);
#278=ORIENTED_EDGE('',*,*,#200,.T.);
#279=ORIENTED_EDGE('',*,*,#199,.F.);
#280=ORIENTED_EDGE('',*,*,#172,.T.);
#281=ORIENTED_EDGE('',*,*,#201,.T.);
#282=ORIENTED_EDGE('',*,*,#200,.F.);
#283=ORIENTED_EDGE('',*,*,#201,.F.);
#284=PLANE('',#338);
#285=PLANE('',#339);
#286=PLANE('',#340);
#287=PLANE('',#341);
#288=PLANE('',#342);
#289=PLANE('',#346);
#290=PLANE('',#348);
#291=PLANE('',#349);
#292=PLANE('',#350);
#293=PLANE('',#352);
#294=PLANE('',#353);
#295=PLANE('',#363);
#296=ADVANCED_FACE('',(#35),#284,.T.);
#297=ADVANCED_FACE('',(#36),#285,.T.);
#298=ADVANCED_FACE('',(#37),#286,.T.);
#299=ADVANCED_FACE('',(#38),#287,.T.);
#300=ADVANCED_FACE('',(#39,#22),#288,.F.);
#301=ADVANCED_FACE('',(#40),#289,.F.);
#302=ADVANCED_FACE('',(#41),#18,.F.);
#303=ADVANCED_FACE('',(#42),#290,.F.);
#304=ADVANCED_FACE('',(#43),#291,.F.);
#305=ADVANCED_FACE('',(#44),#292,.F.);
#306=ADVANCED_FACE('',(#45),#19,.F.);
#307=ADVANCED_FACE('',(#46),#293,.T.);
#308=ADVANCED_FACE('',(#47),#294,.T.);
#309=ADVANCED_FACE('',(#48),#20,.T.);
#310=ADVANCED_FACE('',(#49),#16,.T.);
#311=ADVANCED_FACE('',(#50),#15,.F.);
#312=ADVANCED_FACE('',(#51,#23),#295,.T.);
#313=ADVANCED_FACE('',(#52),#21,.T.);
#314=ADVANCED_FACE('',(#53),#17,.T.);
#315=CLOSED_SHELL('',(#296,#297,#298,#299,#300,#301,#302,#303,#304,#305,
#306,#307,#308,#309,#310,#311,#312,#313,#314));
#316=DERIVED_UNIT_ELEMENT(#319,1.);
#317=DERIVED_UNIT_ELEMENT(#552,-3.);
#318=DIMENSIONAL_EXPONENTS(0.,1.,0.,0.,0.,0.,0.);
#319=(
CONVERSION_BASED_UNIT('gram',#321)
MASS_UNIT()
NAMED_UNIT(#318)
);
#320=(
MASS_UNIT()
NAMED_UNIT(*)
SI_UNIT(.KILO.,.GRAM.)
);
#321=MASS_MEASURE_WITH_UNIT(MASS_MEASURE(0.001),#320);
#322=DERIVED_UNIT((#316,#317));
#323=MEASURE_REPRESENTATION_ITEM('density measure',
POSITIVE_RATIO_MEASURE(7.85),#322);
#324=PROPERTY_DEFINITION_REPRESENTATION(#329,#326);
#325=PROPERTY_DEFINITION_REPRESENTATION(#330,#327);
#326=REPRESENTATION('material name',(#328),#549);
#327=REPRESENTATION('density',(#323),#549);
#328=DESCRIPTIVE_REPRESENTATION_ITEM('Stahl','Stahl');
#329=PROPERTY_DEFINITION('material property','material name',#559);
#330=PROPERTY_DEFINITION('material property','density of part',#559);
#331=DATE_TIME_ROLE('creation_date');
#332=APPLIED_DATE_AND_TIME_ASSIGNMENT(#333,#331,(#559));
#333=DATE_AND_TIME(#334,#335);
#334=CALENDAR_DATE(2015,24,4);
#335=LOCAL_TIME(0,0,0.,#336);
#336=COORDINATED_UNIVERSAL_TIME_OFFSET(0,0,.BEHIND.);
#337=AXIS2_PLACEMENT_3D('',#460,#368,#369);
#338=AXIS2_PLACEMENT_3D('',#461,#370,#371);
#339=AXIS2_PLACEMENT_3D('',#474,#378,#379);
#340=AXIS2_PLACEMENT_3D('',#480,#383,#384);
#341=AXIS2_PLACEMENT_3D('',#483,#387,#388);
#342=AXIS2_PLACEMENT_3D('',#484,#389,#390);
#343=AXIS2_PLACEMENT_3D('',#486,#391,#392);
#344=AXIS2_PLACEMENT_3D('',#490,#394,#395);
#345=AXIS2_PLACEMENT_3D('',#494,#397,#398);
#346=AXIS2_PLACEMENT_3D('',#496,#400,#401);
#347=AXIS2_PLACEMENT_3D('',#506,#407,#408);
#348=AXIS2_PLACEMENT_3D('',#508,#410,#411);
#349=AXIS2_PLACEMENT_3D('',#512,#414,#415);
#350=AXIS2_PLACEMENT_3D('',#516,#418,#419);
#351=AXIS2_PLACEMENT_3D('',#519,#422,#423);
#352=AXIS2_PLACEMENT_3D('',#520,#424,#425);
#353=AXIS2_PLACEMENT_3D('',#521,#426,#427);
#354=AXIS2_PLACEMENT_3D('',#523,#428,#429);
#355=AXIS2_PLACEMENT_3D('',#524,#430,#431);
#356=AXIS2_PLACEMENT_3D('',#526,#432,#433);
#357=AXIS2_PLACEMENT_3D('',#528,#435,#436);
#358=AXIS2_PLACEMENT_3D('',#531,#437,#438);
#359=AXIS2_PLACEMENT_3D('',#532,#439,#440);
#360=AXIS2_PLACEMENT_3D('',#534,#442,#443);
#361=AXIS2_PLACEMENT_3D('',#536,#444,#445);
#362=AXIS2_PLACEMENT_3D('',#537,#446,#447);
#363=AXIS2_PLACEMENT_3D('',#538,#448,#449);
#364=AXIS2_PLACEMENT_3D('',#540,#450,#451);
#365=AXIS2_PLACEMENT_3D('',#541,#452,#453);
#366=AXIS2_PLACEMENT_3D('',#544,#455,#456);
#367=AXIS2_PLACEMENT_3D('',#545,#457,#458);
#368=DIRECTION('axis',(0.,0.,1.));
#369=DIRECTION('refdir',(1.,0.,0.));
#370=DIRECTION('center_axis',(-4.47146370262718E-16,1.,0.));
#371=DIRECTION('ref_axis',(-1.,-4.47146370262718E-16,0.));
#372=DIRECTION('',(1.,4.47146370262718E-16,0.));
#373=DIRECTION('',(-1.,-3.46944695195361E-16,0.));
#374=DIRECTION('',(1.,4.47146370262718E-16,0.));
#375=DIRECTION('',(0.,0.,1.));
#376=DIRECTION('',(-1.,-4.47146370262718E-16,0.));
#377=DIRECTION('',(0.,0.,1.));
#378=DIRECTION('center_axis',(0.866025403784439,-0.5,0.));
#379=DIRECTION('ref_axis',(0.5,0.866025403784439,0.));
#380=DIRECTION('',(-0.5,-0.866025403784439,0.));
#381=DIRECTION('',(0.5,0.866025403784439,0.));
#382=DIRECTION('',(0.,0.,1.));
#383=DIRECTION('center_axis',(-0.866025403784439,-0.5,0.));
#384=DIRECTION('ref_axis',(0.5,-0.866025403784439,0.));
#385=DIRECTION('',(-0.5,0.866025403784439,0.));
#386=DIRECTION('',(0.5,-0.866025403784439,0.));
#387=DIRECTION('center_axis',(0.,0.,1.));
#388=DIRECTION('ref_axis',(1.,0.,0.));
#389=DIRECTION('center_axis',(0.,0.,-1.));
#390=DIRECTION('ref_axis',(-1.,0.,0.));
#391=DIRECTION('center_axis',(0.,0.,-1.));
#392=DIRECTION('ref_axis',(-1.,0.,0.));
#393=DIRECTION('',(-5.97515863947567E-16,1.,0.));
#394=DIRECTION('center_axis',(0.,0.,-1.));
#395=DIRECTION('ref_axis',(8.67361737988403E-16,-1.,0.));
#396=DIRECTION('',(1.,-1.38777878078145E-15,0.));
#397=DIRECTION('center_axis',(0.,0.,-1.));
#398=DIRECTION('ref_axis',(-1.,0.,0.));
#399=DIRECTION('',(5.97515863947567E-16,-1.,0.));
#400=DIRECTION('center_axis',(1.37427301308497E-15,0.99026806874157,-0.139173100960066));
#401=DIRECTION('ref_axis',(1.,-1.38777878078145E-15,0.));
#402=DIRECTION('',(1.20713422729958E-16,-0.139173100960066,-0.99026806874157));
#403=DIRECTION('',(0.137844537491627,-0.137844537491628,-0.980814848463989));
#404=DIRECTION('',(-1.,1.38777878078145E-15,0.));
#405=DIRECTION('',(-0.137844537491629,-0.137844537491628,-0.980814848463989));
#406=DIRECTION('',(1.20713422729958E-16,-0.139173100960066,-0.99026806874157));
#407=DIRECTION('center_axis',(0.,0.,1.));
#408=DIRECTION('ref_axis',(8.67361737988403E-16,-1.,0.));
#409=DIRECTION('',(0.139173100960066,0.,-0.99026806874157));
#410=DIRECTION('center_axis',(-0.99026806874157,-5.91700880633808E-16,-0.139173100960066));
#411=DIRECTION('ref_axis',(-5.97515863947567E-16,1.,0.));
#412=DIRECTION('',(0.137844537491629,0.137844537491629,-0.980814848463989));
#413=DIRECTION('',(5.97515863947567E-16,-1.,0.));
#414=DIRECTION('center_axis',(3.43568253271243E-16,-0.99026806874157,-0.139173100960065));
#415=DIRECTION('ref_axis',(-1.,-3.46944695195361E-16,0.));
#416=DIRECTION('',(-0.137844537491629,0.137844537491629,-0.980814848463989));
#417=DIRECTION('',(1.,3.46944695195361E-16,0.));
#418=DIRECTION('center_axis',(0.99026806874157,5.91700880633808E-16,-0.139173100960065));
#419=DIRECTION('ref_axis',(5.97515863947567E-16,-1.,0.));
#420=DIRECTION('',(-0.139173100960066,0.,-0.99026806874157));
#421=DIRECTION('',(-5.97515863947567E-16,1.,0.));
#422=DIRECTION('center_axis',(0.,0.,1.));
#423=DIRECTION('ref_axis',(-1.,0.,0.));
#424=DIRECTION('center_axis',(0.,0.,1.));
#425=DIRECTION('ref_axis',(1.,0.,0.));
#426=DIRECTION('center_axis',(0.,1.83697019872103E-16,-1.));
#427=DIRECTION('ref_axis',(-1.,0.,0.));
#428=DIRECTION('center_axis',(0.,-1.83697019872103E-16,1.));
#429=DIRECTION('ref_axis',(0.,-1.,-1.83697019872103E-16));
#430=DIRECTION('center_axis',(0.,-1.83697019872103E-16,1.));
#431=DIRECTION('ref_axis',(0.,-1.,-1.83697019872103E-16));
#432=DIRECTION('center_axis',(0.,-1.83697019872103E-16,1.));
#433=DIRECTION('ref_axis',(0.,-1.,-1.83697019872103E-16));
#434=DIRECTION('',(8.65956056235495E-17,-0.707106781186549,-0.707106781186546));
#435=DIRECTION('center_axis',(0.,-1.83697019872103E-16,1.));
#436=DIRECTION('ref_axis',(0.,-1.,-1.83697019872103E-16));
#437=DIRECTION('center_axis',(0.,-1.83697019872103E-16,1.));
#438=DIRECTION('ref_axis',(0.,-1.,-1.83697019872103E-16));
#439=DIRECTION('center_axis',(0.,-1.83697019872103E-16,1.));
#440=DIRECTION('ref_axis',(0.,-1.,-1.83697019872103E-16));
#441=DIRECTION('',(0.,1.83697019872103E-16,-1.));
#442=DIRECTION('center_axis',(0.,-1.83697019872103E-16,1.));
#443=DIRECTION('ref_axis',(1.,0.,0.));
#444=DIRECTION('center_axis',(1.22464679914735E-16,-1.,-1.83697019872103E-16));
#445=DIRECTION('ref_axis',(-1.,-1.22464679914735E-16,0.));
#446=DIRECTION('center_axis',(0.,9.18485099360515E-17,-1.));
#447=DIRECTION('ref_axis',(1.,0.,0.));
#448=DIRECTION('center_axis',(0.,0.,-1.));
#449=DIRECTION('ref_axis',(-1.,0.,0.));
#450=DIRECTION('center_axis',(0.,0.,1.));
#451=DIRECTION('ref_axis',(-1.,0.,0.));
#452=DIRECTION('center_axis',(0.,0.,1.));
#453=DIRECTION('ref_axis',(-1.,0.,0.));
#454=DIRECTION('',(0.499999999999999,-6.12323399573676E-17,0.866025403784439));
#455=DIRECTION('center_axis',(0.,0.,-1.));
#456=DIRECTION('ref_axis',(-1.,0.,0.));
#457=DIRECTION('center_axis',(0.,0.,1.));
#458=DIRECTION('ref_axis',(-1.,0.,0.));
#459=DIRECTION('',(0.,0.,-1.));
#460=CARTESIAN_POINT('',(0.,0.,0.));
#461=CARTESIAN_POINT('Origin',(0.465545134571728,-0.589999999999999,2.));
#462=CARTESIAN_POINT('',(0.2,-0.589999999999999,2.));
#463=CARTESIAN_POINT('',(0.465545134571728,-0.589999999999999,2.));
#464=CARTESIAN_POINT('',(0.232772567285864,-0.589999999999999,2.));
#465=CARTESIAN_POINT('',(-0.2,-0.589999999999999,2.));
#466=CARTESIAN_POINT('',(-0.1,-0.589999999999999,2.));
#467=CARTESIAN_POINT('',(-0.465545134571728,-0.589999999999999,2.));
#468=CARTESIAN_POINT('',(0.232772567285864,-0.589999999999999,2.));
#469=CARTESIAN_POINT('',(-0.465545134571728,-0.589999999999999,2.3));
#470=CARTESIAN_POINT('',(-0.465545134571728,-0.589999999999999,2.));
#471=CARTESIAN_POINT('',(0.465545134571728,-0.589999999999999,2.3));
#472=CARTESIAN_POINT('',(0.465545134571728,-0.589999999999999,2.3));
#473=CARTESIAN_POINT('',(0.465545134571728,-0.589999999999999,2.));
#474=CARTESIAN_POINT('Origin',(1.59860022220564E-18,-1.39634782629472,2.));
#475=CARTESIAN_POINT('',(6.39440088882257E-18,-1.39634782629472,2.));
#476=CARTESIAN_POINT('',(0.302318172522603,-0.872717391434201,2.));
#477=CARTESIAN_POINT('',(0.,-1.39634782629472,2.3));
#478=CARTESIAN_POINT('',(0.,-1.39634782629472,2.3));
#479=CARTESIAN_POINT('',(6.39440088882257E-18,-1.39634782629472,2.));
#480=CARTESIAN_POINT('Origin',(-0.465545134571728,-0.589999999999999,2.));
#481=CARTESIAN_POINT('',(-0.535090739808467,-0.46954347828684,2.));
#482=CARTESIAN_POINT('',(-0.465545134571728,-0.589999999999999,2.3));
#483=CARTESIAN_POINT('Origin',(-1.38777878078145E-16,-0.993173913147361,
2.3));
#484=CARTESIAN_POINT('Origin',(0.,0.,2.));
#485=CARTESIAN_POINT('',(1.55,1.8982025386784E-16,2.));
#486=CARTESIAN_POINT('Origin',(0.,0.,2.));
#487=CARTESIAN_POINT('',(-0.200000000000002,1.21,2.));
#488=CARTESIAN_POINT('',(-0.200000000000001,0.605000000000001,2.));
#489=CARTESIAN_POINT('',(-0.100000000000002,1.31,2.));
#490=CARTESIAN_POINT('Origin',(-0.100000000000001,1.21,2.));
#491=CARTESIAN_POINT('',(0.0999999999999985,1.31,2.));
#492=CARTESIAN_POINT('',(0.0500000000000001,1.31,2.));
#493=CARTESIAN_POINT('',(0.199999999999999,1.21,2.));
#494=CARTESIAN_POINT('Origin',(0.0999999999999986,1.21,2.));
#495=CARTESIAN_POINT('',(0.2,-0.294999999999999,2.));
#496=CARTESIAN_POINT('Origin',(0.0999999999999985,1.31,2.));
#497=CARTESIAN_POINT('',(-0.100000000000001,1.21,1.28846302776158));
#498=CARTESIAN_POINT('',(-0.100000000000002,1.31,2.));
#499=CARTESIAN_POINT('',(-0.05945916529761,1.16945916529761,1.));
#500=CARTESIAN_POINT('',(-0.0980998883483734,1.20809988834837,1.27494303084644));
#501=CARTESIAN_POINT('',(0.0594591652976072,1.16945916529761,1.));
#502=CARTESIAN_POINT('',(-0.100000000000002,1.16945916529761,1.));
#503=CARTESIAN_POINT('',(0.0999999999999986,1.21,1.28846302776158));
#504=CARTESIAN_POINT('',(0.0838490509611603,1.19384905096116,1.17354305398286));
#505=CARTESIAN_POINT('',(0.0999999999999985,1.31,2.));
#506=CARTESIAN_POINT('Origin',(-0.100000000000001,1.21,2.));
#507=CARTESIAN_POINT('',(-0.200000000000002,1.21,2.));
#508=CARTESIAN_POINT('Origin',(-0.200000000000002,1.21,2.));
#509=CARTESIAN_POINT('',(-0.059459165297609,-0.449459165297608,1.));
#510=CARTESIAN_POINT('',(-0.182898995135347,-0.572898995135346,1.8783200277637));
#511=CARTESIAN_POINT('',(-0.059459165297609,-0.589999999999999,1.));
#512=CARTESIAN_POINT('Origin',(-0.2,-0.589999999999999,2.));
#513=CARTESIAN_POINT('',(0.0594591652976081,-0.449459165297607,1.));
#514=CARTESIAN_POINT('',(0.196199776696743,-0.586199776696743,1.97296000616971));
#515=CARTESIAN_POINT('',(0.2,-0.449459165297607,1.));
#516=CARTESIAN_POINT('Origin',(0.2,-0.589999999999999,2.));
#517=CARTESIAN_POINT('',(0.199999999999999,1.21,2.));
#518=CARTESIAN_POINT('',(0.0594591652976072,1.21,1.));
#519=CARTESIAN_POINT('Origin',(0.0999999999999986,1.21,2.));
#520=CARTESIAN_POINT('Origin',(-0.100000000000002,1.31,1.));
#521=CARTESIAN_POINT('Origin',(0.,-0.324999999999999,-5.8));
#522=CARTESIAN_POINT('',(-7.96020419445779E-17,0.650000000000001,-5.8));
#523=CARTESIAN_POINT('Origin',(0.,1.0654427152582E-15,-5.8));
#524=CARTESIAN_POINT('Origin',(0.,1.05166543876779E-15,-5.725));
#525=CARTESIAN_POINT('',(-9.79717439317882E-17,0.800000000000001,-5.65));
#526=CARTESIAN_POINT('Origin',(0.,1.03788816227738E-15,-5.65));
#527=CARTESIAN_POINT('',(-8.87868929381831E-17,0.725000000000001,-5.725));
#528=CARTESIAN_POINT('Origin',(0.,5.36083246422733E-16,-2.91830127018922));
#529=CARTESIAN_POINT('',(-0.8,-8.20631153509147E-17,-0.186602540378444));
#530=CARTESIAN_POINT('',(-9.79717439317882E-17,0.8,-0.186602540378444));
#531=CARTESIAN_POINT('Origin',(0.,3.42783305680839E-17,-0.186602540378444));
#532=CARTESIAN_POINT('Origin',(0.,3.42783305680839E-17,-0.186602540378444));
#533=CARTESIAN_POINT('',(-9.79717439317882E-17,0.8,-2.91830127018922));
#534=CARTESIAN_POINT('Origin',(0.,0.,-0.1));
#535=CARTESIAN_POINT('',(-0.85,-1.22464679914735E-16,-5.62409918498197E-33));
#536=CARTESIAN_POINT('Origin',(-0.85,-1.04094977927525E-16,-0.1));
#537=CARTESIAN_POINT('Origin',(0.,-9.18485099360515E-18,0.));
#538=CARTESIAN_POINT('Origin',(0.,0.,0.));
#539=CARTESIAN_POINT('',(1.46339745962156,1.79214501480591E-16,0.));
#540=CARTESIAN_POINT('Origin',(0.,0.,0.));
#541=CARTESIAN_POINT('Origin',(0.,0.,0.075));
#542=CARTESIAN_POINT('',(1.55,-1.8982025386784E-16,0.15));
#543=CARTESIAN_POINT('',(1.50669872981078,-1.84517377674215E-16,0.075));
#544=CARTESIAN_POINT('Origin',(0.,0.,0.15));
#545=CARTESIAN_POINT('Origin',(0.,0.,0.));
#546=CARTESIAN_POINT('',(1.55,1.8982025386784E-16,0.));
#547=UNCERTAINTY_MEASURE_WITH_UNIT(LENGTH_MEASURE(0.01),#551,
'DISTANCE_ACCURACY_VALUE',
'Maximum model space distance between geometric entities at asserted c
onnectivities');
#548=UNCERTAINTY_MEASURE_WITH_UNIT(LENGTH_MEASURE(0.01),#551,
'DISTANCE_ACCURACY_VALUE',
'Maximum model space distance between geometric entities at asserted c
onnectivities');
#549=(
GEOMETRIC_REPRESENTATION_CONTEXT(3)
GLOBAL_UNCERTAINTY_ASSIGNED_CONTEXT((#547))
GLOBAL_UNIT_ASSIGNED_CONTEXT((#551,#553,#554))
REPRESENTATION_CONTEXT('','3D')
);
#550=(
GEOMETRIC_REPRESENTATION_CONTEXT(3)
GLOBAL_UNCERTAINTY_ASSIGNED_CONTEXT((#548))
GLOBAL_UNIT_ASSIGNED_CONTEXT((#551,#553,#554))
REPRESENTATION_CONTEXT('','3D')
);
#551=(
LENGTH_UNIT()
NAMED_UNIT(*)
SI_UNIT(.MILLI.,.METRE.)
);
#552=(
LENGTH_UNIT()
NAMED_UNIT(*)
SI_UNIT(.CENTI.,.METRE.)
);
#553=(
NAMED_UNIT(*)
PLANE_ANGLE_UNIT()
SI_UNIT($,.RADIAN.)
);
#554=(
NAMED_UNIT(*)
SI_UNIT($,.STERADIAN.)
SOLID_ANGLE_UNIT()
);
#555=SHAPE_DEFINITION_REPRESENTATION(#556,#557);
#556=PRODUCT_DEFINITION_SHAPE('',$,#559);
#557=SHAPE_REPRESENTATION('',(#337),#549);
#558=PRODUCT_DEFINITION_CONTEXT('part definition',#563,'design');
#559=PRODUCT_DEFINITION('2005-05-00 Stelleinsatz',
'2005-05-00 Stelleinsatz',#560,#558);
#560=PRODUCT_DEFINITION_FORMATION('',$,#565);
#561=PRODUCT_RELATED_PRODUCT_CATEGORY('2005-05-00 Stelleinsatz',
'2005-05-00 Stelleinsatz',(#565));
#562=APPLICATION_PROTOCOL_DEFINITION('international standard',
'automotive_design',2009,#563);
#563=APPLICATION_CONTEXT(
'Core Data for Automotive Mechanical Design Process');
#564=PRODUCT_CONTEXT('part definition',#563,'mechanical');
#565=PRODUCT('2005-05-00 Stelleinsatz','2005-05-00 Stelleinsatz',$,(#564));
#566=PRESENTATION_STYLE_ASSIGNMENT((#567));
#567=SURFACE_STYLE_USAGE(.BOTH.,#570);
#568=SURFACE_STYLE_RENDERING_WITH_PROPERTIES($,#574,(#569));
#569=SURFACE_STYLE_TRANSPARENT(0.);
#570=SURFACE_SIDE_STYLE('',(#571,#568));
#571=SURFACE_STYLE_FILL_AREA(#572);
#572=FILL_AREA_STYLE('',(#573));
#573=FILL_AREA_STYLE_COLOUR('',#574);
#574=COLOUR_RGB('',0.752941176470588,0.752941176470588,0.752941176470588);
ENDSEC;
END-ISO-10303-21;
